Oops, an error
Loading. Please wait.

Perfect World Bass Tab

version 3
version 3

Whole song

Interactive

562 views 1 this week
no commentswrite comment
1 2 3 4 5
3 more votes to show rating
add to favorites
launch autoscroll
font size
0
reset
guitar tuner
Autoscroll
slow
fast
+/-
esc
set tempo
stop
Help us to improve Ultimate-Guitar.com Take our survey!
×
Author
I keep uploading this and someone keeps rejecting it ¬_¬
I don't understand why, cause it's 99% correct.

Rate and comment please :)
Tune all strings half step down

Intro
------------------------------------------------|
-----6----6-2-4-6-4-4-242-----------------------|
--44---00-----------------(4)-------------------|    <<< Play 4 second time and let ring)
------------------------------------------------|(x2)



Verse 0:38
-------------------------------------------|
-------------------------------------------|
-44-00----22--44-00-22/14141414------------|      (14's not 1's and 4's)
-------00----------------------------------|



chorus 0:49
-------------------------------------------|
-------------------------------------------|
-4444-0000------2-222----------------------|
-----------0000----------------------------|

-------------------------------------------|
-------------------------------------------|
-4444-0000------2-222/14141414-------------|     (14's)
-----------0000----------------------------|

----------------------------------------------|
----------------------------------------------|
-4444-12121212----------2-222-----------------|     (12's)
---------------12121212-----------------------|

-------------------------------------------|
-------------------------------------------|
--00000000-2222222-------------------------|
-------------------------------------------|



Intro (x2)



Verse 1:35
----------------------------------|
----------------------------------|
-44-00----22--44-00-22------------|  
-------00-------------------------|



After Verse
-------------------------------------------|
-------------------------------------------|
-00000000-2222222/14~----------------------|
-------------------------------------------|



Chorus
-------------------------------------------|
-------------------------------------------|
-4444-0000------2-222----------------------|
-----------0000----------------------------|

-------------------------------------------|
-------------------------------------------|
-4444-0000------2-222/14141414-------------|     (14's)
-----------0000----------------------------|

----------------------------------------------|
----------------------------------------------|
-4444-12121212----------2-222-----------------|     (12's)
---------------12121212-----------------------|

-------------------------------------------|
-------------------------------------------|
--00000000-2222222-------------------------|
-------------------------------------------|



Bridge 2:28
--------------------------------------------------|
--------------------------------------------------|
-0000------22222222-2-4-12121212----------22222222|  (12's)
------0000-----------------------12121212---------|

----------------------------------------------------|
----------------------------------------------------|
-12121212----------0000-----------------------------|  (12's and 17)
----------12121212------0000-2222-4444-5555555/17---|



intro
------------------------------------------------|
-----6----6-2-4-6-4-4-242-----------------------|
--44---00---------------------------------------|
------------------------------------------------|

----------------------------9-------------------|
-----6----6-2-4-6-4-4-242467--------------------| (Not too sure about that end 
--44---00---------------------------------------| bit, I definately know the last note is 9 on Gb)
------------------------------------------------|


Chorus
-------------------------------------------|
-------------------------------------------|
-4444-0000------2-222----------------------|
-----------0000----------------------------|

-------------------------------------------|
-------------------------------------------|
-4444-0000------2-222/14141414-------------|     (14's)
-----------0000----------------------------|

----------------------------------------------|
----------------------------------------------|
-4444-12121212----------2-222-----------------|     (12's)
---------------12121212-----------------------|

----------------------------------------------------|
----------------------------------------------------|
--00000000-2222222/14141414141414141414141414141414-|    (14's)
----------------------------------------------------|



Ending
------------------------------------------------|
-----6----6-2-4-6-4-4-242-----------------------|
--44---00---------------------------------------|
------------------------------------------------|

------------------------------------------------|
-----6----6-2-4-6-4~~~~~~-----------------------|
--44---00---------------------------------------|
------------------------------------------------|
Suggest correction
Give kudos to tab author, rate the tab!
1 2 3 4 5
comments
print report bad tab
guest
You may want to rate the tab now too:
select rating
Wanna post a correction for this tab? Suggest correction