Oops, an error
Loading. Please wait.

Perfect World Tab

version 4
version 4

Whole song

Interactive

925 views 6 this week
no commentswrite comment
1 2 3 4 5
please rate
add to favorites
launch autoscroll
font size
0
reset
how to read this tab
guitar tuner
Autoscroll
slow
fast
+/-
esc
set tempo
stop
Help us to improve Ultimate-Guitar.com Take our survey!
×
Author
Perfect World by Simple PLan
This is my first tab


Intro:

E||------3-------3-------8-------8-------|
B||----4---4---4---4---8---8---8---8-----|
G||--5---------------6-------6-----------| 2x
D||----------6---------------------------|
A||--------------------------------------|
E||--------------------------------------|

Riff:

E||----------------------------------------------|   |-----------|
B||-------------------------------------3h4p3----|   |-----------|
G||------------------------8-10-12-10--------3---|2x |-----------|
D||--5-5-/-12------------------------------------|   |---5-------|
A||--3-3-/-10---6-6-/-13---6--8-10--8------------|   |---3-------|
E||-------------4-4-/-11-------------------------|   |-----------|

Verse:

E||------3-------3-------8-------8-------|
B||----4---4---4---4---8---8---7---7-----|
G||--5---------------6-------6-----------| 4x
D||----------6---------------------------|
A||--------------------------------------|
E||--------------------------------------|

Chorus:

E||-----------------------------------------|
B||-----------------------------------------|
G||-----------------------------------------|
D||---5-5--5------------8-8--8--------------|
A||---3-3--3---6-6--6---6-6--6---8-8--8-----|
E||------------4-4--4------------6-6--6-----|

E||-----------------------------------------|
B||-----------------------------------------|
G||-----------------------------------------|
D||---5-5--5------------8-8-8---------------|
A||---3-3--3---6-6--6---6-6-6----8--8--8----|
E||------------4-4--4------------6--6--6----|

E||-----------------------------------------|
B||-----------------------------------------|
G||-----------------------------------------|
D||---5-5--5------------8-8--8--------------|
A||---3-3--3---6-6--6---6-6--6---8-8--8-----|
E||------------4-4--4------------6-6--6-----|

E||-------------------|-------------------|
B||-------------------|-------------------|
G||-------------------|-------------------|
D||-------------------|-------------------|
A||--6-6-6-6-6-6-6-6--|--8-8-8-8-8-8-8-8--|
E||--4-4-4-4-4-4-4-4--|--6-6-6-6-6-6-6-6--|

Riff:

E||----------------------------------------------|   |-----------|
B||-------------------------------------3h4p3----|   |-----------|
G||------------------------8-10-12-10--------3---|2x |-----------|
D||--5-5-/-12------------------------------------|   |---5-------|
A||--3-3-/-10---6-6-/-13---6--8-10--8------------|   |---3-------|
E||-------------4-4-/-11-------------------------|   |-----------|

Verse:

E||------3-------3-------8-------8-------|
B||----4---4---4---4---8---8---7---7-----|
G||--5---------------6-------6-----------| 4x
D||----------6---------------------------|
A||--------------------------------------|
E||--------------------------------------|

Chorus:

E||-------------------|-------------------|
B||-------------------|-------------------|
G||-------------------|-------------------|
D||-------------------|-------------------|
A||--6-6-6-6-6-6-6-6--|--8-8-8-8-8-8-8-8--|
E||--4-4-4-4-4-4-4-4--|--6-6-6-6-6-6-6-6--|

E||-----------------------------------------|
B||-----------------------------------------|
G||-----------------------------------------|
D||---5-5--5------------8-8--8--------------|
A||---3-3--3---6-6--6---6-6--6---8-8--8-----|
E||------------4-4--4------------6-6--6-----|

E||-----------------------------------------|
B||-----------------------------------------|
G||-----------------------------------------|
D||---5-5--5------------8-8-8---------------|
A||---3-3--3---6-6--6---6-6-6----8--8--8----|
E||------------4-4--4------------6--6--6----|

E||-----------------------------------------|
B||-----------------------------------------|
G||-----------------------------------------|
D||---5-5--5------------8-8--8--------------|
A||---3-3--3---6-6--6---6-6--6---8-8--8-----|
E||------------4-4--4------------6-6--6-----|

E||-------------------|-------------------|
B||-------------------|-------------------|
G||-------------------|-------------------| 3x
D||-------------------|-------------------|
A||--6-6-6-6-6-6-6-6--|--8-8-8-8-8-8-8-8--|
E||--4-4-4-4-4-4-4-4--|--6-6-6-6-6-6-6-6--|

E||-----------|-------------------|
B||-----------|-------------------|
G||-----------|-------------------| 2x
D||-----------|-------------------|
A||---6---8---|--8-8-8-8-8-8-8-8--|
E||---4---6---|--6-6-6-6-6-6-6-6--|

E||-----------|    |-----------| |-------|
B||-----------|    |-----------| |-------|
G||-----------| 2x |-----------| |-------|
D||-----------|    |-----------| |-------|
A||---6---8---|    |---3---5---| |---6---|
E||---4---6---|    |---1---3---| |---4---|

Riff:

E||----------------------------------------------|   |-----------|
B||-------------------------------------3h4p3----|   |-----------|
G||------------------------8-10-12-10--------3---|2x |-----------|
D||--5-5-/-12------------------------------------|   |---5-------|
A||--3-3-/-10---6-6-/-13---6--8-10--8------------|   |---3-------|
E||-------------4-4-/-11-------------------------|   |-----------|

Chorus:

E||-----------------------------------------|
B||-----------------------------------------|
G||-----------------------------------------|
D||---5-5--5------------8-8--8--------------|
A||---3-3--3---6-6--6---6-6--6---8-8--8-----|
E||------------4-4--4------------6-6--6-----|

E||-----------------------------------------|
B||-----------------------------------------|
G||-----------------------------------------|
D||---5-5--5------------8-8-8---------------|
A||---3-3--3---6-6--6---6-6-6----8--8--8----|
E||------------4-4--4------------6--6--6----|

E||-----------------------------------------|
B||-----------------------------------------|
G||-----------------------------------------|
D||---5-5--5------------8-8--8--------------|
A||---3-3--3---6-6--6---6-6--6---8-8--8-----|
E||------------4-4--4------------6-6--6-----|

E||-------------------|-------------------|    |-------------------|
B||-------------------|-------------------|    |-------------------|
G||-------------------|-------------------| 2x |-------------------|
D||-------------------|-------------------|    |-------------------|
A||--6-6-6-6-6-6-6-6--|--8-8-8-8-8-8-8-8--|    |--8-8-8-8-8-8-8-8--|
E||--4-4-4-4-4-4-4-4--|--6-6-6-6-6-6-6-6--|    |--6-6-6-6-6-6-6-6--|

Outro:

E||----------------------------------------------|
B||-------------------------------------3h4p3----|
G||------------------------8-10-12-10--------3---|
D||--5-5-/-12------------------------------------|
A||--3-3-/-10---6-6-/-13---6--8-10--8------------|
E||-------------4-4-/-11-------------------------|

E||---------------------------------------|
B||---------------------------------------|
G||------------------------8-10-12-10-----|
D||--5-5-/-12-----------------------------|
A||--3-3-/-10---6-6-/-13---6--8-10--8-----|
E||-------------4-4-/-11------------------|
Suggest correction new What's this?
You can suggest a correction to this tab. Community and Mods will review your correction and vote to approve or reject it.
comments
We did not receive enough feedback on this tab! Please rate:
print report bad tab
1 2 3 4 5
guest
You may want to rate the tab now too:
select rating
Please do not post tabs as comments. Select "correction" instead!