Oops, an error
Loading. Please wait.

Perfectly Perfect Acoustic tab

11,671 views 78 this week
4 commentsread comments
1 2 3 4 5
x 15
add to favorites
×
Save as Personal and add changes to this tab that will be seen only by you. Learn more ›
×
You can save this tab as Personal to edit and correct it or add notes. All changes will be seen only by you. Learn more »
launch autoscroll
font size
0
reset
how to read this tab
guitar tuner
edit
Autoscroll
slow
fast
+/-
esc
set tempo
stop
Author
Difficulty
10.02.2017 - fix F chord picking ending. Maybe not 100% correct but more closer than it`s been.

[Intro]

    C    
e|------------------|
B|--------1---------|
G|------------0---0-| x2
D|----2---------2---| 
A|--3---3-----------|
E|------------------|


[Verse]

    C                  G                  Am                 F         (This part might be inaccurate)
e|------------------|------------------|------------------|------------------|
B|--------1---------|--------1---------|--------1---------|--------1---------|
G|------------0---0-|------------0---0-|------------2---2-|------------------| x4
D|----2---------2---|--------------0---|----2---------2---|------------------|
A|--3---3-----------|----2-------------|--0---0-----------|----3-------------|
E|------------------|--3---3-----------|------------------|--1---1-----1-3-1-|

    С                  F                  C                  F  
e|------------------|------------------|------------------|-----------------------------------|
B|--------1---------|--------1---------|--------1---------|--------1-------1--------1---------|
G|------------0---0-|------------------|------------0---0-|-----------------------------------|
D|----2---------2---|------------------|----2---------2---|-----------------------------------|
A|--3---3-----------|----3-------------|--3---3-----------|----3-------3--------3-------------|
E|------------------|--1---1-----1-3-1-|------------------|--1---1-------1--------1-----1-3-1-|


[Chorus]

(for rythm)

    C   F   C   F   C   G   Am   
e|--0---1---0---1---0---3---0-| Struming - something like this:
B|--1---1---1---1---1---3---1-| dduudu for each chord, it can be mix with simple dudu between chords
G|--0---2---0---2---0---0---2-|
D|--2---3---2---3---2---0---2-|
A|--3---3---3---3---3---2---0-|
E|--x---1---x---1---x---3---x-|

    F(dud)G(udu)C                  C  
e|--1-----3----|-----------------|-----------------|
B|--1-----3----|-------1---------|-------1---------|
G|--2-----0----|-----------0---0-|-----------0---0-|
D|--3-----0----|---2---------2---|---2---------2---|
A|--3-----2----|-3---3-----------|-3---3-----------|
E|--1-----3----|-----------------|-----------------|


[Chorus]

(for picking)
    C                  F                  C                  F                  C
e|------------------|------------------|------------------|------------------|------------------|
B|--------1---------|--------1---------|--------1---------|--------1---------|--------1---------|
G|------------0---0-|------------------|------------0---0-|------------------|------------0---0-|
D|----2---------2---|------------------|----2---------2---|------------------|----2---------2---|
A|--3---3-----------|----3-------------|--3---3-----------|----3-------------|--3---3-----------|
E|------------------|--1---1-----1-3-1-|------------------|--1---1-----1-3-1-|------------------|

    G                  Am                 F      G       C                 C
e|------------------|------------------|---------------|-----------------|-----------------|
B|--------1---------|--------1---------|---------------|-------1---------|-------1---------|
G|------------0---0-|------------2---2-|------2------0-|-----------0---0-|-----------0---0-|
D|--------------0---|----2---------2---|---------------|---2---------2---|---2---------2---|
A|----2-------------|--0---0-----------|----3------2---|-3---3-----------|-3---3-----------|
E|--3---3-----------|------------------|--1------3-----|-----------------|-----------------|


[Verse]

    C                  G                  Am                 F         (This part might be inaccurate)
e|------------------|------------------|------------------|------------------|
B|--------1---------|--------1---------|--------1---------|--------1---------|
G|------------0---0-|------------0---0-|------------2---2-|------------------| x4
D|----2---------2---|--------------0---|----2---------2---|------------------|
A|--3---3-----------|----2-------------|--0---0-----------|----3-------------|
E|------------------|--3---3-----------|------------------|--1---1-----1-3-1-|


[Chorus]

(for rhythm)

    C   F   C   F   C   G   Am   
e|--0---1---0---1---1---3---0-| Struming - something like this:
B|--1---1---1---1---1---3---1-| dduudu for each chord, it can be mix with simple dudu between chords
G|--0---2---0---2---2---0---2-|
D|--2---3---2---3---3---0---2-|
A|--3---3---3---3---3---2---0-|
E|--x---1---x---1---1---3---x-|

    F(dud)G(udu)
e|--1-----3----|             
B|--1-----3----|              
G|--2-----0----| (repeat all)
D|--3-----0----|
A|--3-----2----|
E|--1-----3----|


[Bridge]

    F   C   G   F   F   Am  G   F 
e|--1---0---3---1---1---0---3---1-| Struming - something like this:
B|--1---1---3---1---1---1---3---1-| ddddddd(7 times)very very fast du (it`s should sound like in acoustic 
G|--2---0---0---2---2---2---0---2-| version of Swing, Swing by All-American Rejects) or you can simply strum
D|--3---2---0---3---3---2---0---3-| always d
A|--3---3---2---3---3---0---2---3-|
E|--1---x---3---1---1---x---3---1-|


[Last Chorus]

    C   F   C   F   C   G   Am   
e|--0---1---0---1---0---3---0-| Struming: C F C F play 1 strum, with C and then G Am F G start strumnig
B|--1---1---1---1---1---3---1-| d from quiet on C and max loud on last G, and then....  
G|--0---2---0---2---0---0---2-| ...for this part I think better use dudu . it`s sound more dynamically 
D|--2---3---2---3---2---0---2-| then dduudu
A|--3---3---3---3---3---2---0-|
E|--x---1---x---1---x---3---x-|
    F     G                    C
e|--1-----3----|             |-0-|
B|--1-----3----|             |-1-|
G|--2-----0----| (repeat all)|-0-|
D|--3-----0----|             |-2-|
A|--3-----2----|             |-3-|
E|--1-----3----|             |-x-|

    G   Am  F   G   C     
e|--3---0---1---3---0-| continue struming with dudu
B|--3---1---1---3---1-| 
G|--0---2---2---0---0-|
D|--0---2---3---0---2-|
A|--2---0---3---2---3-|
E|--3---x---1---3---x-|

    G    Am    F      G       C
e|--3-|--0--|---------------|-----------0------||
B|--3-|--1--|---------------|---------1--------||
G|--0-|--2--|------2------0-|-------0----------||
D|--0-|--2--|---------------|-----2------------||
A|--2-|--0--|----3------2---|---3--------------||
E|--3-|--x--|--1------3-----|-x----------------||



************************************

| x  Dead note
| d  Strum down
| u  Strum up

************************************

            
            
Suggest correction
Creating personal tab
Creating personal tab
You can edit any tab online and save it as your Personal.

You can edit, replace or remove any tab part or add personal notes – all changes will be seen only by you.

Personal tabs can be accessed anytime from any device, even offline.
Learn more »
comments
print report bad tab
4 comments total. Showing first comments.
0 reply
lpipes48 10 Mar 01, 2016 02:23 PM

this tab is great!

0 reply
franciscoaguila 42 Jun 19, 2016 01:31 PM

This tab is perfectly perfect

+1 reply
mgwilson15 330 Jan 16, 2017 04:31 PM

I'm pretty sure it goes from the F to a G in the verse where you say it might be wrong. If you play the F note you can hear it switch to the G shortly before it circles back to C for the picking patter to restart. Idk for sure but try it out

guest
You may want to rate the tab now too:
select rating
Wanna post a correction for this tab? Suggest correction