Oops, an error
Loading. Please wait.

Promise Bass Tab

version 1
version 1

Whole song

Interactive

2,029 views 1 this week
no commentswrite comment
1 2 3 4 5
2 more votes to show rating
add to favorites
launch autoscroll
font size
0
reset
guitar tuner
Autoscroll
slow
fast
+/-
esc
set tempo
stop
Help us to improve Ultimate-Guitar.com Take our survey!
×
Author
Difficulty
Tuning
intermediate
D A D G B E
Simple Plan
Promise
>>>DROP D<<<

Intro (0:04)
|------------------------|
|------------------------| X2
|------6--8-6--8-4\------|
|------------------------|

Intro Part 2
|---------------------------------|
|---------------------------------|
|---4444444444--------------------|
|--------------44444-66x-66x------|

|---------------------------------|
|---------------------------------|
|---4444444444--------------------|
|--------------44444-6-6-6--------|


Verse (0:26)
|------------------------|
|------------------------| X2
|------6--8-6--8-4\------|
|------------------------|

Pre-chorus
|------------------------------------------------------------------|
|------------------------------------------------------------------|
|---44444-------44444------------44444-----------------------------|
|---------44444-------66666------------66666-4~--6-6-6-------------|

Chorus (18's not 1's and 8's)
|----------------------------------------|
|----------------------------------------|
|-4444-4444------------------------------|
|-----------6666-6666-11x11x-44-44-66/18-|

|--------------------------------------------|
|--------------------------------------------|
|-4444-4444----------------------------------|
|-----------18181818-18181818-11x11x-44-44-6-|

Intro Part 2
|---------------------------------|
|---------------------------------|
|---4444444444--------------------|
|--------------44444-66x-66x------|

|---------------------------------|
|---------------------------------|
|---4444444444--------------------|
|--------------44444-6-6-6--------|

Verse
|------------------------------------|
|------------------------------------|
|--4-44-44-44-4-44-6--8-6--8-4\------|
|------------------------------------|

|------------------------------------|
|------------------------------------|
|--444444444444444-6--8-6--8-4\------|
|------------------------------------|

Pre Chorus (11's not 1's)
|------------------------------------------------------------------|
|------346------------------------------------346------------------|
|---444------421---444689111111-111111XX---444------643------------|
|---------444------------------------------------666---4~--6-------|

Chorus (18's not 1's and 8's)
       (1's not 11's and 13's not 1's and 3's)
|----------------------------------------|
|----------------------------------------|
|-4444-4444------------------------------|
|-----------6666-6666-111111-44-44-666---|

|--------------------------------------------------|
|--------------------------------------------------|
|-4444-4444----------------------------------------|
|-----------18181818-18181818-131313131111-44-44-6-|
(Instead of Playing 18's on the E string you can play 11's on the A string)

Bridge (2:11)
|--------------------------------------------------|
|--------------------------------------------------|
|-4~----4~----4~--------4-4444---------------------|
|------------------6~----------4-4444-66-66-66-xxxx|

Solo   (16's not 1's and 6's)
|----------------------------------------------------------------|
|----------------------------------------------------------------|
|----------------444444------------------------------------------|
|---888888-44444--------66666-888888-666666-444/161616-----------|

|------------------------------------------------------------------|
|------------------------------------------------------------------|
|----------------444444--------------------------------------------|
|---888888-44444--------66666-888888-666666-161616161616-----------|

Second Chorus
|--------------------------------|
|--------------------------------|
|---44---------------------------|
|-------66---11---44-44-6xxx-----|

Chorus (18's not 1's and 8's)
       (1's not 11's and 13's not 1's and 3's)
|---------------------------------------------|
|---------------------------------------------|
|-4444-4444-----------------------------------|
|-----------6666-6666-111111-44-44-666/18/6---|

|------------------------------------------|
|------------------------------------------|
|-4444-4444----------------------------44--|
|-----------6666-6666-111111-44-44-666-----| END :D
Suggest correction
Give kudos to tab author, rate the tab!
1 2 3 4 5
comments
print report bad tab
guest
You may want to rate the tab now too:
select rating
Wanna post a correction for this tab? Suggest correction