Oops, an error
Loading. Please wait.

Promise Tab

version 1
version 1

Whole song

Interactive

17,965 views 6 this week
5 commentsread comments
1 2 3 4 5
excellent!
x 8
add to favorites
launch autoscroll
font size
0
reset
how to read this tab
guitar tuner
Tab Pro tools
  • play this tab
  • loop segment
  • change instrument
  • show fretboard
  • metronome
×
Best way to learn
"Promise"
Autoscroll
slow
fast
+/-
esc
set tempo
stop
Contributor
This is Drop D tuning
There are 2 guitars and i finally finished the solo. Leave me any comments so i can make it better.
intro part 1 x2
Gt.1                                      Gt.2
|----------------------------------------|------------------------|
|----------------------------------------|------------------------|
|---6-66-666-6-66-666-6-66-666-8-10-8-10-|------8-10-8-10-6\------|
|---x-xx-xxx-x-xx-xxx-x-xx-xxx-x--x-x--x-|------6--8-6--8-4\------|
|---4-44-444-4-44-444-4-44-444-6--8-6--8-|------6--8-6--8-4\------|
|----------------------------------------|------------------------|

intro part 2 
Gt.1 x2                               Gt.2 x2
|---------------------------------|--------------------------------|
|---------------------------------|--------------------------------|
|---6666666666--------------------|-66-8-8/10----8-10-8-10---------|
|---6666666666-44444-66x-66x------|-xx-x-x--x-x3-x--x-x--x---------|
|---4444444444-44444-66x-66x------|-44-6-6/-8----6--8-6--8---------|
|--------------44444-66x-66x------|--------------------------------|

fill dont play last part of each gt in intro part 2 play this
Gt.1                                Gt.2
|---------------------------------|--------------------------------|
|---------------------------------|--------------------------------|
|---------------------------------|---888-10-8-6-------------------|
|---6-6-6-------------------------|---xxx--x-x-x-------------------|
|---6-6-6-------------------------|---666--8-6-4-------------------|
|---6-6-6-------------------------|--------------------------------|

verse 1 is same as intro part 1

prechorus
Both Guitars
|------------------------------------------------------------------|
|------------------------------------------------------------------|
|---66666-------66666------------66666-----------------------------|
|---66666-44444-66666-66666------66666-66666-4~--6-6-6-------------|
|---44444-44444-44444-66666------44444-66666-4~--6-6-6-------------|
|---------44444-------66666------------66666-4~--6-6-6-------------|

chorus x2
Gt.1                               Gt.2
|------------------------------------|-------------------------------------|
|------------------------------------|-------------------------------------|
|-6666-6666--------------------------|-6666-6666-8888-8888-88-88-66-66-8---|
|-6666-6666-6666-6666-11x11x-44-44-6-|-6666-6666-8888-8888-88-88-66-66-8---|
|-4444-4444-6666-6666-11x11x-44-44-6-|-4444-4444-6666-6666-66-66-44-44-6---|
|-----------6666-6666-11x11x-44-44-6-|-------------------------------------|

intro part 2 and fill
verse 2
Gt.1 x2                                Gt.2 comes in on 2nd time through
|------------------------------------|--9---9---9---9---9------------------|
|------------------------------------|----9---9---9---9---8-10-8-10--------|
|--66-66-66-6-66-8-10-8-10-----------|--------------------8-10-8-10--------|
|--66-66-66-6-66-8-10-8-10-----------|--------------------6--8-6--8--------|
|--44-44-44-4-44-6--8-6--8-----------|-------------------------------------|
|------------------------------------|-------------------------------------|

prechorus
chorus

bridge
Gt.1
|------------------------------------------------------------|
|------------------------------------------------------------|
|---6~--6~--6~---6~---6~---6~-----6-6666---------------------|
|---6~--6~--6~-6~6~-6~6~-6~6~-6~--6-6666-4-4444-66-66-66-xx--|
|---4~--4~--4~-6~4~-6~4~-6~4~-6~--4-4444-4-4444-66-66-66-xx--|
|--------------6~---6~---6~---6~---------4-4444-66-66-66-xx--|
                                    ....   ....  
Gt.2 
|-----------9-8-------9-8------9-11-8-9---9-8----------------|
|---------------9\7-------9-7-----------------9-7------------|
|------------------------------------------------------------|
|------------------------------------------------------------|
|------------------------------------------------------------|
|------------------------------------------------------------|

solo
Gt. 1 x2
|------------------------------------------------------------|
|------------------------------------------------------------|
|----------------666666--------------------------------------|
|---888888-44444-666666-66666-888888-666666-444444-----------|
|---888888-44444-444444-66666-888888-666666-444444-----------|
|---888888-44444--------66666-888888-666666-444444-----------|

Gt. 2
|------------------6------------------------6----------------|
|---6--6--6--------6---------------8-6--------9b-9b----------|
|---8b-8b-8b-8-6---6-------------6-8-6-8--8b-----------------|
|----------------8---8-------6-8-----------------------------|
|------------------------/8----------------------------------|
|------------------------------------------------------------|

|-----------------------------------------6---6-9-6-9--------|
|---------------------------------6-9-6-9---9----------------|
|---------------------6---6-8-6-8----------------------------|
|---------6---6-8-6-8---8------------------------------------|
|---8-6-8---8------------------------------------------------|
|------------------------------------------------------------|

|---11b-11b-11r-9-11-9----14-13-11-9-------------------------|
|------------------------------------11-9--------------------|
|-----------------------------------------10-8---------------|
|------------------------------------------------------------|
|------------------------------------------------------------|
|------------------------------------------------------------|
(in this part the song has an added guitar but i tabbed it so that one guitar could play)       
|--4--4--4--4--4-6-4-4-8b9r8-6-4-----------------------------|
|--4--4--4--4---6---6------------6---------------------------|
|---33-33-33-33--------------------6-6-66-5-5-555------------|
|----------------------------------6-6-66-6-6-666------------|
|------------------------------------------------------------|
|------------------------------------------------------------|

|--------------8---8-9-8---9-9-------------------------------|
|--6---6-9-6-9---9-------9-----------------------------------|
|----8-------------------------------------------------------|
|------------------------------------------------------------|
|------------------------------------------------------------|
|------------------------------------------------------------|

new chorus
Gt.1
|--------------------------------|---9-9-----------------------------------|
|--------------------------------|-----------------------------------------|
|---66---------------------------|------------88888--111111-101010---------|
|---66--66---11---44-44-6xxx-----|--------66--88888--111111-101010--44-44-6|
|---44--66---11---44-44-6xxx-----|--------66--66666---99999--88888--44-44-6|
|-------66---11---44-44-6xxx-----|--------66------------------------44-44-6|

plays first chorus once
then gt.1 plays normal chorus while gt.2 plays the intro part 2

both guitars end on
|-------------|
|-------------|
|---6-6-------|
|---6-6-------|
|---4-4-------|
|-------------|


hope this is right i think its pretty close. let me know what you think.
comments
print report bad tab
5 comments total. Showing first comments.
0 reply
americanidiot71 wrote on March 30 2006, 01:59 pm

hey ths would be easier if it wasent in drop D but besides that good tab!!!!

0 reply
aname wrote on July 6 2006, 12:40 pm

the solo is ok but not all right

0 reply
jumaden wrote on March 3 2007, 02:55 am

uh.. can you please post the chords? please!! thanks!

I want to post or [tab]
guest
You may want to rate the tab now too:
select rating
Please do not post tabs as comments. Select "correction" instead!