Oops, an error
Loading. Please wait.

Running Out Of Time Tab

version 1
version 1

Whole song

Interactive

4,677 views 9 this week
1 commentread comment
1 2 3 4 5
excellent!
x 3
add to favorites
launch autoscroll
font size
0
reset
how to read this tab
guitar tuner
Tab Pro tools
  • play this tab
  • loop segment
  • change instrument
  • show fretboard
  • metronome
Autoscroll
slow
fast
+/-
esc
set tempo
stop
Contributor
Tab by Ll0rky.
Guitar #1 Drop D  DADGBE
Guitar #2 Drop D  DADGBE


Pre-Intro:
Guitar #1
-----------------|
-----------------|
-----------------|
-X-X-X-X-X-X-X-X-| x4
-X-X-X-X-X-X-X-X-|
-X-X-X-X-X-X-X-X-|

Guitar #2: (Not Sure)
After Two times
-------------------|
-4-----------------|
-1-----------------|
-1---------///////-|
-1---------///////-|
-1---------///////-|


Intro:
Guitar #1
-----------------------------------------------------------------------|
-----------------------------------------------------------------------|
-12121010--10--101088--8--12121010--10--13-13-1210810------------------|
-x-x-x-x---x---x-x-xx--x--x-x-x-x---x---x--x--x-x-xx-------------------|
-10108-8---8---8-8-66--6--10108-8---8---11-11-108-68-------------------|
-----------------------------------------------------------------------|

-----------------------------------------------------------------------|
-----------------------------------------------------------------------|
-12121010--10--101088--8--12121010--10--13-13-1210810------------------|
-x-x-x-x---x---x-x-xx--x--x-x-x-x---x---x--x--x-x-xx-------------------|
-10108-8---8---8-8-66--6--10108-8---8---11-11-108-68-------------------|
-----------------------------------------------------------------------|

Guitar #2
--------------------------------------------|
--------------------------------------------|
--------------------------------------------|
1-1-8-8--8--3-3-6-6--6--1-1-8-8--8--6--6--8-|
1-1-8-8--8--3-3-6-6--6--1-1-8-8--8--6--6--8-|
1-1-8-8--8--3-3-6-6--6--1-1-8-8--8--6--6--8-|

--------------------------------------------|
--------------------------------------------|
--------------------------------------------|
1-1-8-8--8--3-3-6-6--6--1-1-8-8--8--6--6--8-|
1-1-8-8--8--3-3-6-6--6--1-1-8-8--8--6--6--8-|
1-1-8-8--8--3-3-6-6--6--1-1-8-8--8--6--6--8-|


Couplet Part1:
Guitar #1&2
-----------------------------------------------|
-----------------------------------------------|
-6-6-----------------------6-6-----------------|
-6-6-6-6--6--1-1-4-4--4----6-6-6-6--6--4--4--6-| x2
-4-4-6-6--6--1-1-4-4--4----4-4-6-6--6--4--4--6-|
-----6-6--6--1-1-4-4--4--------6-6--6--4--4--6-|

At the end of the Second Time, ////////


Couplet Part2:
Guitar #1
---------------------------------|
---------------------------------|
---------------------------------|
-1111111111111114444444444444444- x2
-1111111111111114444444444444444-
-1111111111111114444444444444444-
 ...............................

Guitar #2
---------------------------------------------|
---------------------------------------------|
10--10--10--10--10-10-10--10--10--10--10-10--| x2
--88--88--88--88--8--8--88--88--88--88--8--8-|
---------------------------------------------|
---------------------------------------------|


Refrain:
Guitar #1&2
-----------------------------------------------------------|
-----------------------------------------------------------|
-8-8-8--------------------8-8-8----------------------------|
-8-8-8-8-8--88--6-66-8-8--8-8-8-8-8--88--3-3-6-6-----------|
-6-6-6-8-8--88--6-66-8-8--6-6-6-8-8--88--3-3-6-6-----------|
-------8-8--88--6-66-8-8--------8-8--88--3-3-6-6-----------|

-----------------------------------------------------------|
-----------------------------------------------------------|
-8-8-8--------------------5555555533333333-----------------|
-8-8-8-8-8--88--6-66-8-8--5555555533333333666666668--------|
-6-6-6-8-8--88--6-66-8-8--3333333311111111666666668--------|
-------8-8--88--6-66-8-8------------------666666668--------|


Re-Intro:
Guitar #1
-----------------------------------------------------------------------|
-----------------------------------------------------------------------|
-12121010--10--101088--8--12121010--10--13-13-1210810------------------|
-x-x-x-x---x---x-x-xx--x--x-x-x-x---x---x--x--x-x-xx-------------------|
-10108-8---8---8-8-66--6--10108-8---8---11-11-108-68-------------------|
-----------------------------------------------------------------------|

-----------------------------------------------------------------------|
-----------------------------------------------------------------------|
-12121010--10--101088--8--12121010--10--13-13-1210810------------------|
-x-x-x-x---x---x-x-xx--x--x-x-x-x---x---x--x--x-x-xx-------------------|
-10108-8---8---8-8-66--6--10108-8---8---11-11-108-68-------------------|
-----------------------------------------------------------------------|

Guitar #2
--------------------------------------------|
--------------------------------------------|
--------------------------------------------|
1-1-8-8--8--3-3-6-6--6--1-1-8-8--8--6--6--8-|
1-1-8-8--8--3-3-6-6--6--1-1-8-8--8--6--6--8-|
1-1-8-8--8--3-3-6-6--6--1-1-8-8--8--6--6--8-|

--------------------------------------------|
--------------------------------------------|
--------------------------------------------|
1-1-8-8--8--3-3-6-6--6--1-1-8-8--8--6--6--8-|
1-1-8-8--8--3-3-6-6--6--1-1-8-8--8--6--6--8-|
1-1-8-8--8--3-3-6-6--6--1-1-8-8--8--6--6--8-|


Couplet Part1:
Guitar #1&2
-----------------------------------------------|
-----------------------------------------------|
-6-6-----------------------6-6-----------------|
-6-6-6-6--6--1-1-4-4--4----6-6-6-6--6--4--4--6-| x2
-4-4-6-6--6--1-1-4-4--4----4-4-6-6--6--4--4--6-|
-----6-6--6--1-1-4-4--4--------6-6--6--4--4--6-|

At the end of the Second Time, ////////


Couplet Part2:
Guitar #1
---------------------------------|
---------------------------------|
---------------------------------|
-1111111111111114444444444444444- x2
-1111111111111114444444444444444-
-1111111111111114444444444444444-
 ...............................

Guitar #2
---------------------------------------------|
---------------------------------------------|
10--10--10--10--10-10-10--10--10--10--10-10--| x2
--88--88--88--88--8--8--88--88--88--88--8--8-|
---------------------------------------------|
---------------------------------------------|


Refrain:
Guitar #1&2
-----------------------------------------------------------|
-----------------------------------------------------------|
-8-8-8--------------------8-8-8----------------------------|
-8-8-8-8-8--88--6-66-8-8--8-8-8-8-8--88--3-3-6-6-----------|
-6-6-6-8-8--88--6-66-8-8--6-6-6-8-8--88--3-3-6-6-----------|
-------8-8--88--6-66-8-8--------8-8--88--3-3-6-6-----------|

-----------------------------------------------------------|
-----------------------------------------------------------|
-8-8-8--------------------5555555533333333-----------------|
-8-8-8-8-8--88--6-66-8-8--5555555533333333666666668--------|
-6-6-6-8-8--88--6-66-8-8--3333333311111111666666668--------|
-------8-8--88--6-66-8-8------------------666666668--------|


Break Part1:
Guitar #1:
------------------|
------------------|
-8----8----8----8-|
-x----x----x----x-|
-6----6----6----6-|
------------------|

Break Part2:
Guitar #2
-----------------------------|
-----------------------------|
-78888xx78888xx--------------| x3
-xxxxxxxxxxxxxx--------------|
-56666xx56666xx--------------|
-----------------------------|

Break Part3:
Guitar #1
------------------------------------------------------|
------------------------------------------------------|
-8!-----------8!----------8_______--------------------|
-8!--------66-8!--------6-8_______---6666666666666666-|
-6!--------66-6!--------6-6_______---6666666666666666-|
-----------66-----------6------------6666666666666666-|
                                     ................

Refrain:
Guitar #1&2
-----------------------------------------------------------|
-----------------------------------------------------------|
-8-8-8--------------------8-8-8----------------------------|
-8-8-8-8-8--88--6-66-8-8--8-8-8-8-8--88--3-3-6-6-----------|
-6-6-6-8-8--88--6-66-8-8--6-6-6-8-8--88--3-3-6-6-----------|
-------8-8--88--6-66-8-8--------8-8--88--3-3-6-6-----------|

---------------------------------------------------------------------------|
---------------------------------------------------------------------------|
-8-8-8--------------------5555555533333333----------------5555555533333333-|
-8-8-8-8-8--88--6-66-8-8--555555553333333366666666888888885555555533333333-|
-6-6-6-8-8--88--6-66-8-8--333333331111111166666666888888883333333311111111-|
-------8-8--88--6-66-8-8------------------6666666688888888-----------------|

----------------|
----------------|
----------------|
-666666668!////-
-666666668!////-
-666666668!////-

Outro:
Guitar #1
-----------------------------------------------------------------------|
-----------------------------------------------------------------------|
-12121010--10--101088--8--12121010--10--13-13-1210810------------------|
-x-x-x-x---x---x-x-xx--x--x-x-x-x---x---x--x--x-x-xx-------------------|
-10108-8---8---8-8-66--6--10108-8---8---11-11-108-68-------------------|
-----------------------------------------------------------------------|

-----------------------------------------------------------------------|
-----------------------------------------------------------------------|
-12121010--10--101088--8--12121010--10----10--12--8____________--------|
-x-x-x-x---x---x-x-xx--x--x-x-x-x---x-----x---x---x--------------------|
-10108-8---8---8-8-66--6--10108-8---8-----8---10--6____________--------|
-----------------------------------------------------------------------|

Guitar #2
--------------------------------------------|
--------------------------------------------|
--------------------------------------------|
1-1-8-8--8--3-3-6-6--6--1-1-8-8--8--6--6--8-|
1-1-8-8--8--3-3-6-6--6--1-1-8-8--8--6--6--8-|
1-1-8-8--8--3-3-6-6--6--1-1-8-8--8--6--6--8-|

--------------------------------------------|
--------------------------------------------|
--------------------------------------------|
1-1-8-8--8--3-3-6-6--6--1-1-8-8--8----8-5-6-|
1-1-8-8--8--3-3-6-6--6--1-1-8-8--8----8-5-6-|
1-1-8-8--8--3-3-6-6--6--1-1-8-8--8----8-5-6-|
comments
We did not receive enough feedback on this tab! Please rate:
print report bad tab
1 2 3 4 5
1 comment total.
0 reply
tomaswright wrote on September 28 2010, 11:23 am

It should be tuned half step down, but apart from that it's good

I want to post or [tab]
guest
You may want to rate the tab now too:
select rating
Please do not post tabs as comments. Select "correction" instead!