Oops, an error
Loading. Please wait.

Saturday tab

986 views 12 this week
no commentswrite comment
1 2 3 4 5
2 more votes to show rating
add to favorites
×
Save as Personal and add changes to this tab that will be seen only by you. Learn more ›
×
You can save this tab as Personal to edit and correct it or add notes. All changes will be seen only by you. Learn more »
launch autoscroll
font size
0
reset
how to read this tab
guitar tuner
edit
Autoscroll
slow
fast
+/-
esc
set tempo
stop
SATURDAY

*STILL WORKING ON THE SOLO

E|--X-X-X---X-X-X---X-X-X---X-X-X-X---X-X-X---X-X-X---X-X-X---X-X-X-X-------|
B|--X-X-X---X-X-X---X-X-X---X-X-X-X---X-X-X---X-X-X---X-X-X---X-X-X-X-------|
G|--X-X-X---X-X-X---X-X-X---X-X-X-X---X-X-X---X-X-X---X-X-X---X-X-X-X-------|DRUM
D|--X-X-X---X-X-X---X-X-X---X-X-X-X---X-X-X---X-X-X---X-X-X---X-X-X-X-------|PART
A|--X-X-X---X-X-X---X-X-X---X-X-X-X---X-X-X---X-X-X---X-X-X---X-X-X-X-------|
E|--X-X-X---X-X-X---X-X-X---X-X-X-X---X-X-X---X-X-X---X-X-X---X-X-X-X-------|
    S-A     T-U-R   D-A-Y   NIGHT     S-A     T-U-R   D-A-Y   NIGHT


E|----------------------------------------------------------------------|
B|----------------------------------------------------------------------|
G|--7-7-7-7--7-7-7-7----------------------------------------------------|
D|--7-7-7-7--7-7-7-7---5-5-5-5--5-5-5-5---5-5--5-5-5---7-7-7-7---5-5----|
A|--5-5-5-5--5-5-5-5---5-5-5-5--5-5-5-5---5-5--5-5-5---7-7-7-7---5-5----|
E|---------------------3-3-3-3--3-3-3-3---3-3--3-3-3---5-5-5-5---3-3----|
    TICKING LIKE A     WAITING FOR THE    SATURDAY     SATURDAY NIGHT
    TIME BOMB          WEEKEND            NIGHT

E|----------------------------------------------------------------------|
B|----------------------------------------------------------------------|
G|--7-7-7-7--7-7-7-7----------------------------------------------------|
D|--7-7-7-7--7-7-7-7---5-5-5-5--5-5-5-5---5-5--5-5-5---7-7-7-7---5-5----|
A|--5-5-5-5--5-5-5-5---5-5-5-5--5-5-5-5---5-5--5-5-5---7-7-7-7---5-5----|
E|---------------------3-3-3-3--3-3-3-3---3-3--3-3-3---5-5-5-5---3-3----|
   PEOPLE THROW THEIR  HIGHER THAN THE    SATURDAY     SATURDAY NIGHT
   HANDS UP            CEILING            NIGHT

E|----------------------------------------------------------------------|
B|----------------------------------------------------------------------|
G|--7-7-7-7--7-7-7-7----------------------------------------------------|
D|--7-7-7-7--7-7-7-7---5-5-5-5--5-5-5-5---5-5--5-5-5---7-7-7-7---5-5----|
A|--5-5-5-5--5-5-5-5---5-5-5-5--5-5-5-5---5-5--5-5-5---7-7-7-7---5-5----|
E|---------------------3-3-3-3--3-3-3-3---3-3--3-3-3---5-5-5-5---3-3----|
    I CAN SEE THE      RUNNING ROUND THE   SATURDAY     SATURDAY NIGHT
    LINE UP            WHOLE BLOCK         NIGHT

E|----------------------------------------------------------------------|
B|----------------------------------------------------------------------|
G|--7-7-7-7--7-7-7-7----------------------------------------------------|
D|--7-7-7-7--7-7-7-7---5-5-5-5--5-5-5-5---5-5--5-5-5---7-7-7-7---5-5----|
A|--5-5-5-5--5-5-5-5---5-5-5-5--5-5-5-5---5-5--5-5-5---7-7-7-7---5-5----|
E|---------------------3-3-3-3--3-3-3-3---3-3--3-3-3---5-5-5-5---3-3----|
    COMING THROUGH     I CAN HEAR THE      SATURDAY     SATURDAY  WE DON’T 
    THE WINDOW         BASS DRUM           NIGHT        NIGHT

E|-----------------------------------------------------------|
B|-----------------------------------------------------------|
G|--5--------------------------------------------------------|
D|--5------------------7----------7-7-7-7--7-7-7-7-----------|
A|--3------------------7----------7-7-7-7--7-7-7-7-----------|
E|---------------------5----------5-5-5-5--5-5-5-5-----------|
    HAVE TO GO  WE CAN STAY RIGHT HERE

E|------------------------------------------------------------------------------|
B|------------------------------------------------------------------------------|
G|------------------------------------7-7-7-7--7-7-7-7--------------------------|
D|--5-5-5-5-5-5----7-7-7-7--7-7-7-7---7-7-7-7--7-7-7-7------9-9-9-9--9-9-9-9----|
A|--5-5-5-5-5-5----7-7-7-7--7-7-7-7---5-5-5-5--5-5-5-5------9-9-9-9--9-9-9-9----|
E|--3-3-3-3-3-3----5-5-5-5--5-5-5-5-------------------------7-7-7-7--7-7-7-7----|
    WE CAN GO GET  UP ALL NIGHT       DON’T STOP BELIEVING  THE MORNING LIGHT
    DRUNK STAYIN’  SINGING            TIL 

E|----------------------------------------------------------------------------------|
B|----------------------------------------------------------------------------------|
G|----------------------------------------7-7-7-7--7-7-7-7--------------------------|
D|--5-5-5-5--5-5-5-5---7-7-7-7--7-7-7-7---7-7-7-7--7-7-7-7------9-9-9-9--9-9-9-9----|
A|--5-5-5-5--5-5-5-5---7-7-7-7--7-7-7-7---5-5-5-5--5-5-5-5------9-9-9-9--9-9-9-9----|
E|--3-3-3-3--3-3-3-3---5-5-5-5--5-5-5-5-------------------------7-7-7-7--7-7-7-7----|
    LINE UP SHOTS TIL  IT ALL GETS BETTER AND WERE PASSED OUT   TAXI CAB
                                          AND PUKING IN 

E|----------------------------------------------------------------------------------|
B|----------------------------------------------------------------------------------|
G|----------------------------------------------------------------------------------|
D|--5-5-5-5-5-5-5-5---7-7-7-7-7-7-7-7---5-5-5-5-5-5-5-5----7-7-7-7-7-7-7-7----------|
A|--5-5-5-5-5-5-5-5---7-7-7-7-7-7-7-7---5-5-5-5-5-5-5-5----7-7-7-7-7-7-7-7----------|
E|--3-3-3-3-3-3-3-3---5-5-5-5-5-5-5-5---3-3-3-3-3-3-3-3----5-5-5-5-5-5-5-5----------| 
    WHEN YOU’RE LYING SIDE              NO ONE ELSE FEELS  RIGHT
    HERE BY MY  

E|---------------------------------------------------|
B|---------------------------------------------------|
G|---------------------------------------------------|
D|--5-5-5-5-5-5-5-5----------7-----------------------|
A|--5-5-5-5-5-5-5-5----------7-----------------------|
E|--3-3-3-3-3-3-3-3----------5-----------------------|
    I’D RATHER BE ALONE WITH YOU ON SATURDAY NIGHT


E|--X-X-X---X-X-X---X-X-X---X-X-X-X---X-X-X---X-X-X---X-X-X---X-X-X-X-------|
B|--X-X-X---X-X-X---X-X-X---X-X-X-X---X-X-X---X-X-X---X-X-X---X-X-X-X-------|
G|--X-X-X---X-X-X---X-X-X---X-X-X-X---X-X-X---X-X-X---X-X-X---X-X-X-X-------|DRUM
D|--X-X-X---X-X-X---X-X-X---X-X-X-X---X-X-X---X-X-X---X-X-X---X-X-X-X-------|PART
A|--X-X-X---X-X-X---X-X-X---X-X-X-X---X-X-X---X-X-X---X-X-X---X-X-X-X-------|
E|--X-X-X---X-X-X---X-X-X---X-X-X-X---X-X-X---X-X-X---X-X-X---X-X-X-X-------|
    S-A     T-U-R   D-A-Y   NIGHT     S-A     T-U-R   D-A-Y   NIGHT

E|----------------------------------------------------------------------|
B|----------------------------------------------------------------------|
G|--7-7-7-7--7-7-7-7----------------------------------------------------|
D|--7-7-7-7--7-7-7-7---5-5-5-5--5-5-5-5---5-5--5-5-5---7-7-7-7---5-5----|
A|--5-5-5-5--5-5-5-5---5-5-5-5--5-5-5-5---5-5--5-5-5---7-7-7-7---5-5----|
E|---------------------3-3-3-3--3-3-3-3---3-3--3-3-3---5-5-5-5---3-3----|
    THIS IS GONNA BE   NIGHT SO EPIC       SATURDAY     SATURDAY NIGHT
    A                                      NIGHT

E|----------------------------------------------------------------------|
B|----------------------------------------------------------------------|
G|--7-7-7-7--7-7-7-7----------------------------------------------------|
D|--7-7-7-7--7-7-7-7---5-5-5-5--5-5-5-5---5-5--5-5-5---7-7-7-7---5-5----|
A|--5-5-5-5--5-5-5-5---5-5-5-5--5-5-5-5---5-5--5-5-5---7-7-7-7---5-5----|
E|---------------------3-3-3-3--3-3-3-3---3-3--3-3-3---5-5-5-5---3-3----|
    YOU AND ME BABY    NOTHING BUT         SATURDAY     SATURDAY NIGHT
                       NETFLIX             NIGHT
      
E|------------------------------------------------------------|
B|------------------------------------------------------------|
G|--5--------------------5-5-5-5---7-7--7-7--7-7--7-7-7-------|
D|--5--------------------5-5-5-5---7-7--7-7--7-7--7-7-7-------|
A|--3--------------------3-3-3-3---5-5--5-5--5-5--5-5-5-------|
E|------------------------------------------------------------|
    WE DON’T HAVE TO GO  WE CAN    STAY RIGHT HERE

E|------------------------------------------------------------------------------|
B|------------------------------------------------------------------------------|
G|------------------------------------7-7-7-7--7-7-7-7--------------------------|
D|--5-5-5-5-5-5----7-7-7-7--7-7-7-7---7-7-7-7--7-7-7-7------9-9-9-9--9-9-9-9----|
A|--5-5-5-5-5-5----7-7-7-7--7-7-7-7---5-5-5-5--5-5-5-5------9-9-9-9--9-9-9-9----|
E|--3-3-3-3-3-3----5-5-5-5--5-5-5-5-------------------------7-7-7-7--7-7-7-7----|
    WE CAN GO GET  UP ALL NIGHT       DON’T STOP BELIEVING  THE MORNING LIGHT
    DRUNK STAYIN’  SINGING            TIL 

E|----------------------------------------------------------------------------------|
B|----------------------------------------------------------------------------------|
G|----------------------------------------7-7-7-7--7-7-7-7--------------------------|
D|--5-5-5-5--5-5-5-5---7-7-7-7--7-7-7-7---7-7-7-7--7-7-7-7------9-9-9-9--9-9-9-9----|
A|--5-5-5-5--5-5-5-5---7-7-7-7--7-7-7-7---5-5-5-5--5-5-5-5------9-9-9-9--9-9-9-9----|
E|--3-3-3-3--3-3-3-3---5-5-5-5--5-5-5-5-------------------------7-7-7-7--7-7-7-7----|
    LINE UP SHOTS TIL  IT ALL GETS BETTER AND WERE PASSED OUT   TAXI CAB
                                          AND PUKING IN 

E|----------------------------------------------------------------------------------|
B|----------------------------------------------------------------------------------|
G|----------------------------------------------------------------------------------|
D|--5-5-5-5-5-5-5-5---7-7-7-7-7-7-7-7---5-5-5-5-5-5-5-5----7-7-7-7-7-7-7-7----------|
A|--5-5-5-5-5-5-5-5---7-7-7-7-7-7-7-7---5-5-5-5-5-5-5-5----7-7-7-7-7-7-7-7----------|
E|--3-3-3-3-3-3-3-3---5-5-5-5-5-5-5-5---3-3-3-3-3-3-3-3----5-5-5-5-5-5-5-5----------| 
    WHEN YOU’RE LYING SIDE              NO ONE ELSE FEELS  RIGHT
    HERE BY MY  

E|---------------------------------------------------|
B|---------------------------------------------------|
G|---------------------------------------------------|
D|--5-5-5-5-5-5-5-5----------7-----------------------|
A|--5-5-5-5-5-5-5-5----------7-----------------------|
E|--3-3-3-3-3-3-3-3----------5-----------------------|
    I’D RATHER BE ALONE WITH YOU ON SATURDAY NIGHT

E|----------------------------------------------------------------------|
B|-----------------------------------------------------------------10---|
G|--12-11--------12-11--------12-11------------12-11b~~~--11-11-12------|
D|--------12-10--------12-10--------12---10-12--------------------------|
A|----------------------------------------------------------------------|
E|----------------------------------------------------------------------|

E|----------------------------------------------------------------------|
B|---------------------------------------5-7-8-10b-8-10b----------------|
G|--12-11--------12-11--------12-11-------------------------------------|
D|--------12-10--------12-10--------12----------------------------------|
A|----------------------------------------------------------------------|
E|----------------------------------------------------------------------|

E|-------------------------------------------------------------------------------|
B|-------------------------------------------------------------------------------|
G|--7-7-7-7--7-7-7-7-------------------------------------------------------------|
D|--7-7-7-7--7-7-7-7-----5-5-5-5--5-5-5-5---9-9-9-9-9-9-9-9--7-7-7-7-7-7-7-7-----|
A|--5-5-5-5--5-5-5-5-----5-5-5-5--5-5-5-5---9-9-9-9-9-9-9-9--7-7-7-7-7-7-7-7-----|
E|-----------------------3-3-3-3--3-3-3-3---7-7-7-7-7-7-7-7--5-5-5-5-5-5-5-5-----|
    IF WE EVER GET BORED IF WE GET RESTLESS SATURDAY NIGHT   SATURDAY NIGHT

E|-------------------------------------------------------------------|
B|-------------------------------------------------------------------|
G|--7-7-7-7--7-7-7-7-------------------------------------------------|
D|--7-7-7-7--7-7-7-7-----5-5-5-5--5-5-5-5---5-5--5-5-5--7-7-7--------|
A|--5-5-5-5--5-5-5-5-----5-5-5-5--5-5-5-5---5-5--5-5-5--7-7-7--------|
E|-----------------------3-3-3-3--3-3-3-3---3-3--3-3-3--5-5-5--------|
    WE CAN GET DRESSED   LETS GET EPIC      S-A  T-U-R  D-A-Y
    UP

E|------------------------------------------------------------------------------|
B|------------------------------------------------------------------------------|
G|------------------------------------7-7-7-7--7-7-7-7--------------------------|
D|--5-5-5-5-5-5----7-7-7-7--7-7-7-7---7-7-7-7--7-7-7-7------9-9-9-9--9-9-9-9----|
A|--5-5-5-5-5-5----7-7-7-7--7-7-7-7---5-5-5-5--5-5-5-5------9-9-9-9--9-9-9-9----|
E|--3-3-3-3-3-3----5-5-5-5--5-5-5-5-------------------------7-7-7-7--7-7-7-7----|
    WE CAN GO GET  UP ALL NIGHT       DON’T STOP BELIEVING  THE MORNING LIGHT
    DRUNK STAYIN’  SINGING            TIL 

E|----------------------------------------------------------------------------------|
B|----------------------------------------------------------------------------------|
G|----------------------------------------7-7-7-7--7-7-7-7--------------------------|
D|--5-5-5-5--5-5-5-5---7-7-7-7--7-7-7-7---7-7-7-7--7-7-7-7------9-9-9-9--9-9-9-9----|
A|--5-5-5-5--5-5-5-5---7-7-7-7--7-7-7-7---5-5-5-5--5-5-5-5------9-9-9-9--9-9-9-9----|
E|--3-3-3-3--3-3-3-3---5-5-5-5--5-5-5-5-------------------------7-7-7-7--7-7-7-7----|
    LINE UP SHOTS TIL  IT ALL GETS BETTER AND WERE PASSED OUT   TAXI CAB
                                          AND PUKING IN


E|----------------------------------------------------------------------------------|
B|----------------------------------------------------------------------------------|
G|----------------------------------------7-7-7-7--7-7-7-7--------------------------|
D|--5-5-5-5--5-5-5-5---7-7-7-7--7-7-7-7---7-7-7-7--7-7-7-7------9-9-9-9--9-9-9-9----|
A|--5-5-5-5--5-5-5-5---7-7-7-7--7-7-7-7---5-5-5-5--5-5-5-5------9-9-9-9--9-9-9-9----|
E|--3-3-3-3--3-3-3-3---5-5-5-5--5-5-5-5-------------------------7-7-7-7--7-7-7-7----|
    WE’LL STOP AT      ON THE BOULEVARD   TIL WE MAX OUT        ON MY CREDIT CARD
    EVERY BAR                             THE LIMITS 

E|----------------------------------------------------------------------------------|
B|----------------------------------------------------------------------------------|
G|----------------------------------------------------------------------------------|
D|--5-5-5-5-5-5-5-5---7-7-7-7-7-7-7-7---5-5-5-5-5-5-5-5----7-7-7-7-7-7-7-7----------|
A|--5-5-5-5-5-5-5-5---7-7-7-7-7-7-7-7---5-5-5-5-5-5-5-5----7-7-7-7-7-7-7-7----------|
E|--3-3-3-3-3-3-3-3---5-5-5-5-5-5-5-5---3-3-3-3-3-3-3-3----5-5-5-5-5-5-5-5----------| 
    WHEN I’VE GOT YOU  SIDE             EVERYTHING FEELS   RIGHT
    HERE BY MY 

E|---------------------------------------------------|
B|---------------------------------------------------|
G|---------------------------------------------------|
D|--5-5-5-5-5-5-5-5--------7-------------------------|
A|--5-5-5-5-5-5-5-5--------7-------------------------|
E|--3-3-3-3-3-3-3-3--------5-------------------------|
    AS LONG AS IT’S ME AND YOU     ON SATURDAY NIGHT

E|--X-X-X---X-X-X---X-X-X--------------|
B|--X-X-X---X-X-X---X-X-X--------------|
G|--X-X-X---X-X-X---X-X-X--------------|
D|--X-X-X---X-X-X---X-X-X---7-7-7------|
A|--X-X-X---X-X-X---X-X-X---7-7-7------|
E|--X-X-X---X-X-X---X-X-X---5-5-5------|
    S-A     T-U-R   D-A-Y   NIGHT  

            
            
Suggest correction
Creating personal tab
Creating personal tab
You can edit any tab online and save it as your Personal.

You can edit, replace or remove any tab part or add personal notes – all changes will be seen only by you.

Personal tabs can be accessed anytime from any device, even offline.
Learn more »
Give kudos to tab author, rate the tab!
1 2 3 4 5
comments
print report bad tab
guest
You may want to rate the tab now too:
select rating
Wanna post a correction for this tab? Suggest correction