Oops, an error
Loading. Please wait.

Save You Bass Tab

version 1
version 1

Whole song

Interactive

15,489 views 15 this week
no commentswrite comment
1 2 3 4 5
excellent!
x 6
add to favorites
launch autoscroll
font size
0
reset
guitar tuner
Tab Pro tools
  • play this tab
  • loop segment
  • change instrument
  • show fretboard
  • metronome
×
Best way to learn
"Save You"
Autoscroll
slow
fast
+/-
esc
set tempo
stop
Contributor
Save you bass tab by andreqpo@hotmail.it

Artist: Simple plan
Bassist:David Desrosiers


Tuning:one half step down (Eb Ab Db Gb)
s=slide
~=let ring

Intro only guitar and piano

Pre-chorus
Gb---------------------------------------------------------------------|
Db---------------------------------------------------------------------|
Ab-12-12-12-12-12-12-12-12-2-2-2-2-2s77-7-7-12-12-12-12-12-12-12-12-2~-|
Eb---------------------------------------------------------------------|

Chorus
Gb----------------------------------------------------------------------------|
Db-----------------------------14---------9------------------77777777---------|
Ab---------22222222121212121212--122222~s9-9---------22222222--------2222-222-|
Eb-00000000----------------------------------00000000-------------------------|

Verse
Gb---------------------------------------------------------|
Db-----------------2---------------------------------------|
Ab-4~-4--------22~--24~-4--------22s997-4~-4----6s7----22~-|
Eb-----55~-0~-0----------55~-0~-0-----------55~----0~-0----|

Pre-chorus

Chorus

Bridge
Gb--------------------------------------------------------------------------|
Db---------------21----------------21---------------------------------------|
Ab-44--22--00--22--20-44--22--00-22--20-4467-2267-0067-22245555555500002222-|
Eb--------------------------------------------------------------------------|

Bridge2
Gb----------------------------------------------------------|
Db----------------------------------------------------------|
Ab-44440000----222244440000---2-2224444s1212121277777s22-22-|
Eb---------0000------------000------------------------------|

Pre-chorus

Chorus2
Gb-----------------------------------------------------------------------------|
Db-----------------------------14---------9------------------77777777----9~-9--|
Ab---------22222222121212121212--122222~s9-9---------22222222--------22s9--9-9-|
Eb-00000000----------------------------------00000000--------------------------|

Outro
Gb------------------------------------------------------------------|
Db---------------------2---2-------------------------------------9~-|
Ab---------22222222h400-000-02222-222---------2222222200000000279---|
Eb-00000000---------------------------00000000----------------------|
comments
print report bad tab
I want to post or [tab]
guest
You may want to rate the tab now too:
select rating
Please do not post tabs as comments. Select "correction" instead!