Oops, an error
Loading. Please wait.

Save You Tab

version 1
version 1

Whole song

Interactive

113,625 views 63 this week
no commentswrite comment
1 2 3 4 5
accurate
x 9
add to favorites
launch autoscroll
font size
0
reset
how to read this tab
guitar tuner
Autoscroll
slow
fast
+/-
esc
set tempo
stop
Help us to improve Ultimate-Guitar.com Take our survey!
×
Author
Difficulty
Capo
novice
3rd fret
yeaa first song :]]]
i heard it by ear so if you have any feedback please email me::
ii_tagg_you@yahoo.com

SAVE YOU by SIMPLE PLAN


(CAPO 3rd Fret – Tabs relative to capo)
   
PLAY THROUGHTOUT FIRST VERSE

      Am		F		 C		   G
E|-------------------------------------------------------------------|
B|-------1------------1------------1------------3--------------------|
G|--------------------------------------------------------x3---------|
D|----2------------3-----------2------------0------------------------|
A|-0------------------------3----------------------------------------|
E|-------------1------------------------3----------------------------|



Am	   F
take a breath,
       C	    G
I’ll pull myself together.
       Am      F     C               G
Just another step until I reach the door
	      Am	F
you’ll never know the way,
      C		   G
it tears me up inside to see you
F
ohh, ohh
   G
I wish that I could tell you something 
F
ohh, ohh
G
to take it all away.


C			   G
Sometimes I wish I could save you
             Am			    F
and there’s so many things that I want you know
C			    G
I won’t give up till it’s over
         Am		    F
if it takes you forever, I want you to know


          Am        F
when I hear your voice,
         C		G
it’s drowning in the whispers
             Am	     F
your just skin and bones
             C		  G
there’s nothing left to take
                 Am   F
and no matter what I do
C		    G
I can’t make you feel better


F
ohh, ohh
G
if only I could find the answer
F
ohh, ohh
G
to help me understand


C			   G
Sometimes I wish I could save you
             Am			    F
and there’s so many things that I want you know
C			    G
I won’t give up till it’s over
         Am		    F
if it takes you forever, I want you to know


       F              G
[that] if you fall, stumble down,
C		Am
I’ll pick you up off the ground.
F	       G
If you lose faith in you,
C		 Am
I’ll give you strength to pull through.
F	      G
Tell me you won’t give up,
F		 Am		   Bb
cause I’ll be waiting here if you fall
G          C
you know I’ll be there for you

	
     Am           F		C	 G
E|--------------0---------------------------------|
B|----3--1---------1---------1-----3----1--1------|
G|-0----------0-----------0-----0-----------------|
D|------------------------------------------------|
A|------------------------------------------------|
E|------------------------------------------------|

     Am           F	C		G
E|--------------0------0--1--0--------------------|
B|----3--1---------1------------3-----------------|
G|-0----------0-----------------------------------|
D|------------------------------------------------|
A|------------------------------------------------|
E|------------------------------------------------|

	Am        F		C	 G
E|--------------0--------------------0------------|
B|----3--1---------1---------1----3-----3--1------|
G|-0----------0-----------0----0------------------|
D|------------------------------------------------|
A|------------------------------------------------|
E|------------------------------------------------|


F
ohh, ohh
G
if only I could find the answer,
F
ohh, ohh
G
to take it all away


C			   G
Sometimes I wish I could save you
             Am			    F
and there’s so many things that I want you know
C			    G
I won’t give up till it’s over
         Am		    F
if it takes you forever, I want you to know


C
ohh, ohh
     	         G
I wish I could save you...
Am
ohh, ohh
     F
I want you to know...
C
Ohh, ohh
    		 G
I wish I could save you... 

Am F C



Suggest correction
comments
print report bad tab
guest
You may want to rate the tab now too:
select rating
Wanna post a correction for this tab? Suggest correction