Oops, an error
Loading. Please wait.

Save You Tab

version 3
version 3

Whole song

Interactive

27,456 views 3 this week
3 commentsread comments
1 2 3 4 5
x 4
add to favorites
launch autoscroll
font size
0
reset
how to read this tab
guitar tuner
Autoscroll
slow
fast
+/-
esc
set tempo
stop
Help us to improve Ultimate-Guitar.com Take our survey!
×
Author
Difficulty
intermediate
Hello, I'm not posting any tabs I made today, 
just altering kitkat93's version a little 
so that you can play along with the real song 
without a capo.

Here it is:

Play throughout first verse.
      Cm		F		 D#		   A#
E|-------------------------------------------------------------------|
B|-------4------------4------------4------------6--------------------|
G|--------------------------------------------------------x6---------|
D|----5------------6-----------5------------3------------------------|
A|-3------------------------6----------------------------------------|
E|-------------4------------------------6----------------------------|

Cm	   G#
take a breath,
       D#	    A#
I’ll pull myself together.
       Cm      G#     D#               A#
Just another step until I reach the door
	      Cm	G#
you’ll never know the way,
      D#		   A#
it tears me up inside to see you
G#
ohh, ohh
   A#
I wish that I could tell you something 
G#
ohh, ohh
A#
to take it all away.


D#			   A#
Sometimes I wish I could save you
             Cm			A#
and there’s so many things that I want you know
D#			    A#
I won’t give up till it’s over
         Cm		    A#
if it takes you forever, I want you to know


          Cm        G#
when I hear your voice,
         D#		A#
it’s drowning in the whispers
             Cm	     G#
your just skin and bones
             D#		  A#
there’s nothing left to take
                 Cm   G#
and no matter what I do
D#		    A#
I can’t make you feel better


G#
ohh, ohh
A#
if only I could find the answer
G#
ohh, ohh
A#
to help me understand


D#			   A#
Sometimes I wish I could save you
             Cm			    A#
and there’s so many things that I want you know
D#			    A#
I won’t give up till it’s over
         Cm		    A#
if it takes you forever, I want you to know


       G#              A#
[that] if you fall, stumble down,
D#		Cm
I’ll pick you up off the ground.
G#	       A#
If you lose faith in you,
D#		 Cm
I’ll give you strength to pull through.
G#	      A#
Tell me you won’t give up,
G#		 Cm		   C#
cause I’ll be waiting here if you fall
A#          D#
you know I’ll be there for you

  Cm           G#		D#	 A#
E|--------------3---------------------------------|
B|----6--4---------4---------4-----6----4--4------|
G|-3----------3-----------3-----3-----------------|
D|------------------------------------------------|
A|------------------------------------------------|
E|------------------------------------------------|

     Cm           G#	D#		A#
E|--------------3------3--4--3--------------------|
B|----6--4---------4------------6-----------------|
G|-3----------3-----------------------------------|
D|------------------------------------------------|
A|------------------------------------------------|
E|------------------------------------------------|

	Cm        G#		D#	 A#
E|--------------3--------------------3------------|
B|----6--4---------4---------4----6-----6--4------|
G|-3----------3-----------3----3------------------|
D|------------------------------------------------|
A|------------------------------------------------|
E|------------------------------------------------|

G#
ohh, ohh
A#
if only I could find the answer,
G#
ohh, ohh
A#
to take it all away


D#			   A#
Sometimes I wish I could save you
             Cm			    A#
and there’s so many things that I want you know
D#			    A#
I won’t give up till it’s over
         Cm		    A#
if it takes you forever, I want you to know


D#
ohh, ohh
     	         A#
I wish I could save you...
Cm
ohh, ohh
     A#
I want you to know...
D#
Ohh, ohh
    		 A#
I wish I could save you... 

Cm G# A# D#

Thanks once again to kitkat93 for posting the original tab.
Have a nice day!
Suggest correction
comments
print report bad tab
3 comments total.
0 reply
Lissiex 10 Apr 25, 2009 07:53 AM

This should be under chords, not tabs.

0 reply
sashabee 51 Dec 05, 2009 01:40 PM

technically not, because you dont play chords, you play the tab above the chords. think of it as a key.

0 reply
:)jesuslovesyou 62 Mar 23, 2010 05:36 AM

In the second Pre-Chorus one of the Guitars plays
something like this
E|----------------------------------------------|
B|-------9--------9---------11----------11------|
G|-----8---8----8---8----10----10----10----10---|x2
D|---6--------6--------8-----------8------------|
A|----------------------------------------------|
E|----------------------------------------------|

guest
You may want to rate the tab now too:
select rating
Wanna post a correction for this tab? Suggest correction