Oops, an error
Loading. Please wait.

Save You Chords

version 4
version 4
33,887 views 9 this week
3 commentsread comments
1 2 3 4 5
x 4
add to favorites
launch autoscroll
font size
0
reset
transpose
0
reset
simplify chords
display chords
guitar tuner
Autoscroll
slow
fast
+/-
esc
set tempo
stop
Help us to improve Ultimate-Guitar.com Take our survey!
×
SAVE YOU
By: Simple Plan
tabbed by: Matmen
Tuning: Down half a step (oh and btw, Simple Plan are ALWAYS tuned-down half step)


CHORDS USED:
      C5      G#      D#      A#5     C#          C#5    
D#||--0----|--0----|--0----|--0----|--2----|    |--0----||
A#||--0----|--2----|--0----|--0----|--3----|    |--0----||
F#||--6----|--2----|--1----|--4----|--2----| or |--7----||
C#||--6----|--2----|--2----|--4----|--0----|    |--7----||
G#||--4----|--0----|--2----|--2----|-------|    |--5----||
D#||-------|-------|-------|-------|-------|    |-------||

PATTERN FOR CHORUS:
      C5              G#              D#              A#5                     
D#||--------0------|--------0------|--------0------|---------0------|
A#||--------0----0-|--------2----0-|--------0----0-|---------0----0-|
F#||--------6--6-6-|--------2--2-2-|--------1--1-1-|---------4--4-4-|
C#||-----6-----6---|-----2-----2-2-|-----2-----2-2-|------4-----4-4-|
G#||--4--------4---|--0--------0---|--2--------2---|--2---------2---|
D#||---------------|---------------|---------------|----------------|

INTRO (piano tabbed for guitar)
D#||--------------------|---------------------||
A#||--------------------|---------------------||
F#||--------------------|---------------------||
C#||--------------------|---------------------||
G#||--4--------4--------|--4--------4---------||
D#||--------------------|----------------4----||

C5     G#        D#            A#5
Take a breath, I pull myself together
      C5     G#     D#              A#5
Just another step until I reach the door
             C5       G# 
You'll never know the way 
   D#            A#5               G# 
It tears me up inside to see you  (Ah ah, ah ah) 

A#5                                   G# 
I wish that I can tell you something (Ah ah, ah ah)
A#5 
To take it all away

CHORUS:
D#                       A#5
Sometimes I wish I could save you
            G#                    A#5
And there's so many things that I want you to know
D#                        A#5
I won't give up till it's over
      G#                  A#5
If it takes you forever I want you to know

       C5        G#          D#            A#5
When I hear your voice, it's drowning into whispers
            C5       G#             D#              A#5
You're just skin and bones, there's nothing left to take
   C5            G#  D#               A#5          G# 
No matter what I do, I can't make you feel better (ah ah, ahah)

A#5                               G# 
If only I could find the answer (ah ah, ah, ah)
A#5 
To help me understand

CHORUS:
D#                       A#5
Sometimes I wish I could save you
            G#                    A#5
And there's so many things that I want you to know
D#                        A#5
I won't give up till it's over
      G#                   A#5
If it takes you forever I want you to know, that


BRIDGE:
C5           A#5
If you fall, stumble down
G#            A#5
I'll pick you up off the ground
C5          A#5
If you lose faith in you
G#            A#5
I'll give you strength to pull through
C5          A#5
Tell me you won't give up
G#            A#5            C#5
Cause I'll be waiting if you fall
    G#         A#5              
You know, I'll be there for you

SOLO: 
C5,  G#,  D#,  A#5  (3x) 

G#
(Ah ah, ah ah)

A#5                              G# 
If only I could find the answer (Ah ah, ah ah)
A#5 
To take it all away

CHORUS:
D#                       A#5
Sometimes I wish I could save you
            G#                    A#5
And there's so many things that I want you to know
D#                        A#5
I won't give up till it's over
      G# 
If it takes you forever
  A#5                  D#
I want you to know

OUTRO:
               A#5       G# 
I wish I could save you
  A#5              D#
I want you to know
               A#5        G#  A#5
I wish I could save you
Suggest correction
comments
print report bad tab
3 comments total.
0 reply
Kallegubben 159 Mar 17, 2008 10:46 AM

When you write chords i Don't like this tune down one step. Cause then it's not the chords. With tabs you can do it like that but please, please, please transform it to the chords they are. Then everyone can choose themself if they want to tune down :)

0 reply
Kallegubben 159 Mar 17, 2008 10:48 AM

and the C5 is a Cm5

0 reply
Kallegubben 159 Mar 17, 2008 10:51 AM

Skip the Cm5 :P it's just a Cm cause it is strange if you play normal chords and then rock chords :P

guest
You may want to rate the tab now too:
select rating
Wanna post a correction for this tab? Suggest correction