Oops, an error
Loading. Please wait.

Save You Tab

version 4
version 4

Whole song

Interactive

4,308 views 1 this week
no commentswrite comment
1 2 3 4 5
please rate
add to favorites
launch autoscroll
font size
0
reset
how to read this tab
guitar tuner
Autoscroll
slow
fast
+/-
esc
set tempo
stop
Help us to improve Ultimate-Guitar.com Take our survey!
×
Author
This is my first tab...i didnt find any good tabs of this on the net so i took 
action =)it isnt 100% correct but its very close =) 

intro - accoustic
e|--------------------------------------------------------------------|
B|--------------------------------------------------------------------|
G|---5---------5------------------------------------------------------|
D|---5-------5---5------6-------6------13--------13-----8------8------| x3
A|---3-----3------------6-----6--6-----13-----13---13---8----8---8----|
E|----------------------4---4----------11--11-----------6--6----------|
IMPORTANT - hold that chord then while holding strum that part....make sense? =)
Pre Chorus
e|---------------------------------------------------------------------|
B|---------------------------------------------------------------------|
G|---------------------------------------------------------------------|
D|----6~-6~-6~-6~--8~-8~-8~-8~--6~-6~-6~-6~--8~------------------------|
A|----6~-6~-6~-6~--8~-8~-8~-8~--6~-6~-6~-6~--8~------------------------|
E|----4~-4~-4~-4~--6~-6~-6~-6~--4~-4~-4~-4~--6~------------------------|

Chorus - Distorted
e|---------------------------------------------------------------------|
B|---------------------------------------------------------------------|
G|---------------------------------------------------------------------|
D|--13-----8-----6-----8-----------------------------------------------| x2
A|--13-x8--8-x7--6-x7--8-x5--------------------------------------------|
E|--11-----6-----4-----6-----------------------------------------------|

Verse - accoustic
e|---------------------------------------------|
B|---------------------------------------------|
G|--5--5---------------------------------------|
D|--5--5--6--6----13/8--8----------------------|
A|--3--3--6--6----13/8--8----------------------|
E|--------4--4----11/6--6----------------------|

Pre Chorus
e|---------------------------------------------------------------------|
B|---------------------------------------------------------------------|
G|---------------------------------------------------------------------|
D|----6~-6~-6~-6~--8~-8~-8~-8~--6~-6~-6~-6~--8~------------------------|
A|----6~-6~-6~-6~--8~-8~-8~-8~--6~-6~-6~-6~--8~------------------------|
E|----4~-4~-4~-4~--6~-6~-6~-6~--4~-4~-4~-4~--6~------------------------|


Chorus - Distorted
e|---------------------------------------------------------------------|
B|---------------------------------------------------------------------|
G|---------------------------------------------------------------------|
D|--13-----8-----6-----8-----------------------------------------------| x2
A|--13-x8--8-x7--6-x7--8-x5--------------------------------------------|
E|--11-----6-----4-----6-----------------------------------------------|

e|-------------------------------------------------------|
B|-------------------------------------------------------|
G|-------------------------------------------------------|
D|-----10-10-xx-8-8-xx-6-6-xx-8-8-xx---------------------| x2
A|-----10-10-xx-8-8-xx-6-6-xx-8-8-xx---------------------|
E|-----8--8--xx-6-6-xx-4-4-xx-6-6-xx---------------------|

e|-------------------------------------------------------|
B|-------------------------------------------------------|
G|-------------------------------------------------------|
D|-----10-----8----6----8---10----6----------------------|
A|-----10-x7--8-x7-6-x7-8---10-x7-6-x7-------------------|
E|-----8------6----4----6---8-----4----------------------|

Solo
e|----------------------------------|--------------------------------------|
B|-------------8--------------------|-------------6--6s8-9-8-6~-6-6p4h6-6--|
G|-----10-8------8----8---10---8----|-----10-8-----------------------------|
D|--/8-------8------8---8----8---8--|--/8-------8--------------------------|
A|----------------------------------|--------------------------------------|
E|----------------------------------|--------------------------------------|

e|--------------------------------------|
B|-------------8-------------8----------|
G|-----10-8------8----8---10---10-8-8~--|
D|--/8-------8------8---8---------------|
A|--------------------------------------|
E|--------------------------------------|

Pre Chorus
e|---------------------------------------------------------------------|
B|---------------------------------------------------------------------|
G|---------------------------------------------------------------------|
D|----6~-6~-6~-6~--8~-8~-8~-8~--6~-6~-6~-6~--8~------------------------|
A|----6~-6~-6~-6~--8~-8~-8~-8~--6~-6~-6~-6~--8~------------------------|
E|----4~-4~-4~-4~--6~-6~-6~-6~--4~-4~-4~-4~--6~------------------------|

Chorus - Distorted
e|---------------------------------------------------------------------|
B|---------------------------------------------------------------------|
G|---------------------------------------------------------------------|
D|--13-----8-----6-----8-----------------------------------------------| x4
A|--13-x8--8-x7--6-x7--8-x5--------------------------------------------|
E|--11-----6-----4-----6-----------------------------------------------|
 
End On..
e|----------------------------|
B|----------------------------|
G|----------------------------|
D|--8-8-8-8~------------------|
A|--8-8-8-8~------------------|
E|--6-6-6-6~------------------|

Hope its ok... plz rate =) tabbed by TrisXD.. credit to = AndrEwhO cuz i used his solo
Suggest correction
Give kudos to tab author, rate the tab!
1 2 3 4 5
comments
print report bad tab
guest
You may want to rate the tab now too:
select rating
Wanna post a correction for this tab? Suggest correction