Oops, an error
Loading. Please wait.

Shut Up Bass Tab

version 3
version 3

Whole song

Interactive

6,740 views 1 this week
2 commentsread comments
1 2 3 4 5
accurate
x 5
add to favorites
launch autoscroll
font size
0
reset
guitar tuner
Autoscroll
slow
fast
+/-
esc
set tempo
stop
Help us to improve Ultimate-Guitar.com Take our survey!
×
Author
Difficulty
intermediate
Note: 4(8) translates to 44444444.

It's not perfect, but it's reeeaaally close.

Intro:
|------|------|----------|------|----------|------|----------|
|------|------|----------|------|----------|------|----------|
|------|-5(8)-|-55555----|------|----------|-5(8)-|-55555----|
|-5-5--|------|------555-|-3(8)-|-33335-5--|------|------555-|

|----------|----------|
|----------|----------|
|----------|----------|
|-33303333-|-33335-5--|

Verse 1:
|----(rest)---|-----------|------|------|------|----------|
|----(for 3)--|-----/7-7--|------|-5(8)-|-7(8)-|-5555-----|
|-5h-(counts)-|-----------|-5(8)-|------|------|----------|
|----(of 8)---|-----------|------|------|------|-----5-5--|

Pre-Chorus 1:
|----------|----------|----------|----------|----------|----------|
|----------|----------|----------|----------|----------|----------|
|----------|----------|----------|------5---|----------|----------|
|-77777----|-55555----|-33333----|-55555----|-77777-7--|-55555----|

|-(optional)-|
|------------|
|----(/10h)--|
|-3-3-/15h---|

Chorus 1:
|------|----------|------|----------|------|----------|------|-(soft 5)-|
|------|----------|------|----------|------|----------|------|----------|
|-5(8)-|-5555-----|------|----------|-5(8)-|-5555-----|------|----------|
|------|-----5-5--|-7(8)-|-77773-5--|------|-----5-5--|-7(8)-|-77775-5--|

Post-Chorus 1:
|------|----------|------|----------|------|----------|------|----------|
|------|----------|------|----------|------|----------|-5(8)-|-55557-7--|
|-5(8)-|-55555----|------|----------|-5(8)-|-5-5-5-5--|------|----------|
|------|------555-|-3(8)-|-33335-5--|------|--5-5-5-5-|------|----------|

Verse 2:
|----(rest)---|----------|----------|----------|----------|----------|
|----(for 3)--|----------|----------|----------|----------|----------|
|-5h-(counts)-|----------|-55555550-|----------|----------|----------|
|-----(of 8)--|-----5-5--|----------|-33333330-|-55555550-|-33335-5--|

Pre-Chorus 2:
|----------|----------|----------|----------|-----------|----------|
|----------|----------|----------|----------|-----------|----------|
|----------|----------|----------|------5---|-----------|----------|
|-77777----|-55555----|-33333----|-55555----|-77777-7---|-55555----|

|------------|
|-------5h---|
|------------|
|-333333-----|

[Chorus 1]

Post-Chorus 2:
|------|----------|------|----------|------|----------|------|----------|
|------|-----54---|------|----------|------|---5-54---|-5(8)-|-55557-7--|
|-5(8)-|-5555--75-|------|----------|-5(8)-|-55-5--75-|------|----------|
|------|----------|-3(8)-|-33335-5--|------|----------|------|----------|

Bridge: I think it's this high, but it might be an octave lower, or a combination of the 
sorry! I think this is right though.
|----------|------|-----79-|-7h---|------|------|--------|-7h---|------|
|----------|-5h---|-7h-----|------|-7h---|-5h---|-7h--79-|------|-7h---|
|-5h-------|------|--------|------|------|------|--------|------|------|
|----------|------|--------|------|------|------|--------|------|------|

|------|------|-77---|------|------|------|
|-5h---|-7h---|------|-77---|-5(8)-|-5(8)-|
|------|------|------|------|------|------|
|------|------|------|------|------|------|

Chorus 2:
|-(rest)---|----------|------|----------|------|----------|------|-(soft 5)|
|-(for 8)--|----------|------|----------|------|----------|------|---------|
|-(counts)-|----------|------|----------|-5(8)-|-5555-----|------|---------|
|----------|-----5-5--|-7(8)-|-77773-5--|------|-----5-5--|-7(8)-|-77775-5-|

|------|-----------|------|-----------|------|----------|------|----------|
|------|-----/7-7--|------|-----/9-7--|------|----------|------|----------|
|-5(8)-|-5555------|------|-----------|-5(8)-|-5555-----|------|----------|
|------|-----------|-7(8)-|-7777------|------|-----5-5--|-7(8)-|-7---5----|

|-----------------|-----------------|-----------------|-----------------|
|-----------------|-----------------|-----------------|-----------------|
|-55-55-55-55-----|-----------------|-55-55-55-55-----|-----------------|
|------------5-5--|-33-33-33-335-5--|------------5-5--|-33-33-33-335-5--|

Ending:
|-------------|
|-------------|
|-55-55-(end)-|
|-------------|
Suggest correction
comments
print report bad tab
2 comments total.
0 reply
RoknOutInMyRoom 115 wrote on June 20 2007, 04:39 pm

Geh, sorry. My mind was playing tricks on me that day. All the notes where there's an "h" after them, that's supposed to mean "hold", not "hammer". Sorry! I forgot a hammer out of confusion.. whatever.. it doesn't make a huge difference.

0 reply
Agatha2405 52 wrote on February 6 2014, 10:41 am

Eb tuning otherwise perfect :)

guest
You may want to rate the tab now too:
select rating
Wanna post a correction for this tab? Suggest correction