Oops, an error
Loading. Please wait.

Shut Up Tab

version 5
version 5
4,754 views 1 this week
no commentswrite comment
1 2 3 4 5
accurate
x 3
add to favorites
launch autoscroll
font size
0
reset
how to read this tab
guitar tuner
Autoscroll
slow
fast
+/-
esc
set tempo
stop
Help us to improve Ultimate-Guitar.com Take our survey!
×
Contributor
Intro(Dist.)
|-------------------------------------------------|
|------6-7-7-6-7-7-6-7-7-6-7-7-7-6-4-2------------|
|------6-6-6-6-6-6-6-6-6-6-6-6--------------------|	
|--2-2--------------------------------------------|
|--2-2--------------------------------------------|
|--4-4--------------------------------------------|
							2x
|-------------------------------------------------|
|------6-7-7-6-7-7-6-7-7-6-7-7-6-4-4--------------|
|------6-6-6-6-6-6-6-6-6-6-6-6-6-6-6--------------|	
|-------------------------------------------------|
|-------------------------------------------------|
|-------------------------------------------------|

Verse(Dist.)
|-------------------------------------|
|-------------------------------------|
|-66666666----------------------------|	  2x		
|-66666666-44444444-66666666-44444444-|
|-44444444-44444444-66666666-44444444-|
|----------22222222-44444444-22222222-|
pm...................................

Pre-Chorus(Dist.)  
|------------------------------------------|
|------------------------------------------|
|---------------------------------2--------|
|--8888xxxx6666xxxx4444xxxx6666-2-2--------|
|--8888xxxx6666xxxx4444xxxx6666-2-4--------|
|--6666xxxx4444xxxx2222xxxx4444-4----------|

|---------------------------------|
|---------------------------------|
|---------------------------------|
|--8888xxxx6666xxxx4-4-4-6--------|
|--8888xxxx6666xxxx4-4-4-6--------|
|--6666xxxx4444xxxx2-2-2-4--------|

Chorus(Dist.)
|---------------------------|
|---------------------------|
|-666666666-----------------|  2x
|-6666666666-6-88888888-4-4-|
|-4444444446-6-88888888-4-4-|
|----------4-4-66666666-2-2-|

Intro(Dist.)
|-------------------------------------------------|
|------6-7-7-6-7-7-6-7-7-6-7-7-7-6-4-2------------|
|------6-6-6-6-6-6-6-6-6-6-6-6--------------------|	
|--2-2--------------------------------------------|
|--2-2--------------------------------------------|
|--4-4--------------------------------------------|
							2x
|-------------------------------------------------|
|------6-7-7-6-7-7-6-7-7-6-7-7-6-4-4--------------|
|------6-6-6-6-6-6-6-6-6-6-6-6-6-6-6--------------|	
|--2-2--------------------------------------------|
|--2-2--------------------------------------------|
|--4-4--------------------------------------------|

Verse(Dist.)
|-------------------------------------|
|-------------------------------------|
|-66666666----------------------------|	  2x		
|-66666666-44444444-66666666-44444444-|
|-44444444-44444444-66666666-44444444-|
|----------22222222-44444444-22222222-|
pm...................................

Pre-Interlude(Dist.) 
|-------------------------------|
|-------------------------------|
|-666xxx6x66-6------------------|
|-666xxx6x66-6-6-444xxx4x44-4-6-|
|-444xxx4x44-4-6-444xxx4x44-4-6-|
|--------------4-222xxx2x22-2-4-|

Bridge(Clean)
|--------------------| -----------------------------------|
|---2---2---2---2----| -----------------------------------|
|--1-1-1-1-1-1-1-1---| -xxxx-6-6--------------------------|  
|------------------5x| -xxxx-6-6-6-6-444444444--/slide in-|
|-4------------------| -xxxx-4-4-6-6-444444444------------|
|-----4---2---4------| -xxxx-----4-4-222222222------------|

|------------------|
|------------------|
|------------------|  
|-6-6-88888888-4-6-|
|-6-6-88888888-4-6-|
|-4-4-66666666-2-4-|

Chorus(Dist.)
|---------------------------|
|---------------------------|
|-666666666-----------------|  3x
|-6666666666-6-88888888-4-6-|
|-4444444446-6-88888888-4-6-|
|----------4-4-66666666-2-4-|


Outro(Dist.)
|---------------------------------------------------|
|------6-7-7-6-7-7-6-7-7-6-7-7-7-6-4-2--------------|
|------6-6-6-6-6-6-6-6-6-6-6-6----------------------|	
|--2-2----------------------------------------------|
|--2-2----------------------------------------------|
|--4-4----------------------------------------------|
							
|---------------------------------------------------|-----------|
|------6-7-7-6-7-7-6-7-7-6-7-7-6-4-4----------------|--66-66-66-|
|------6-6-6-6-6-6-6-6-6-6-6-6-6-6-6--------------2x|--66-66-66-|	
|---------------------------------------------------|-----------|
|---------------------------------------------------|-----------|
|---------------------------------------------------|-----------|
comments
We did not receive enough feedback on this tab! Please rate:
print report bad tab
1 2 3 4 5
I want to post or [tab]
guest
You may want to rate the tab now too:
select rating
Please do not post tabs as comments. Select "correction" instead!