Oops, an error
Loading. Please wait.
We have Chord Pro version of Summer Paradise.
It's the closest thing you can get to the original song and it has interactive parts. Check out the tab »
×
14,233 views 30 this week
4 commentsread comments
1 2 3 4 5
x 6
add to favorites
launch autoscroll
font size
0
reset
guitar tuner
Autoscroll
slow
fast
+/-
esc
set tempo
stop
Difficulty
intermediate
INTRO

|11~6~7~4~|11~6~7~16~--|----------------|---------|
|---------|------------|----------------|------4~~|
|---------|-----------5|2-2-----5-5-----|2-2------|
|10~5~7~3~|10~5~7~15~--|----3-3-----5-5-|----3----|

CHORUS

|----------|--------------------------------------|----------------------------------------|
|----------|--------------------------------------|----------------------------------------|
|----2-----|--------2-5-5~2/5-2-------------9---7-|--------2-5-5~2/5-2---------------------|
|--3---3-5-|3-3~3/5-------------5-5~3/5-3-7---5---|3-3~3/5-------------5-5~3/5-3-5-5-3-3/5-|

|--------------------------------------|-------------------|
|--------------------------------------|-------------------|
|--------2-5-5~2/5-2-------------9-7---|-------------------|
|3-3~3/5-------------5-5~3/5-3-7-----5-|3-3-3-3-5-5-5-5-3\-|

VERSE

|----------------|
|----------------|
|5-5-----2-2-----|
|----5-5-----3-3-|


|------------------------------------|-----------------------------------|
|---------4-----------------4--------|-----------------------------------|
|--2-5--5------------5----2---5-2----|--2-5--5-5----5---5------2/5-2-----|
|5----------7-5--7-5---7----------3--|5----------5----7---7--5-------5-2~|

CHORUS

|--------------------------------------|----------------------------------------|
|--------------------------------------|----------------------------------------|
|--------2-5-5~2/5-2-------------9---7-|--------2-5-5~2/5-2---------------------|
|3-3~3/5-------------5-5~3/5-3-7---5---|3-3~3/5-------------5-5~3/5-3-5-5-3-3-0-|

|--------------------------------------|-------------------|
|--------------------------------------|-------------------|
|--------2-5-5~2/5-2-------------9-7---|-------------------|
|3-3~3/5-------------5-5~3/5-3-7-----5-|3-3-3-3-5-5-5-5-3\-|

SEAN PAUL

|------------------------------------------------------------------|
|------------------------------------------------------------------|
|5-5-----5-5---5---------------2-2-2~2-2-2-2-2-5-2-----------------|
|----5-5-----5---5-5-2~5-5-2-5---------------------3-3-3-3-3-3-5-3\|

|-----------------------------------------------------------------------------|
|-----------------------------------------------------------------------------|
|5-5-----5-5---5-------------------2-2-2~2-2-2-2-2-5-2------------------------|
|----5-5-----5---5-5-5-2-2-5-5-2-5---------------------3-3-3-3/15-15-15-15/17-|

CHORUS - OUTRO

|--------------------------------------|----------------------------------------|
|--------------------------------------|----------------------------------------|
|--------2-5-5~2/5-2-------------9---7-|--------2-5-5~2/5-2---------------------|
|3-3~3/5-------------5-5~3/5-3-7---5---|3-3~3/5-------------5-5~3/5-3-5-5-3-3-2-|

|--------------------------------------|----------------|
|--------------------------------------|----------------|
|--------2-5-5~2/5-2-------------9---7-|----------------|
|3-3~3/5-------------5-5~3/5-3-7---5---|3-3-3-3-5-5-5-5-|

|--------------------------------------|----------------------------------------|
|--------------------------------------|----------------------------------------|
|--------2-5-5~2/5-2-------------9---7-|--------2-5-5~2/5-2---------------------|
|3-3~3/5-------------5-5~3/5-3-7---5---|3-3~3/5-------------5-5~3/5-3-5-5-3-3-2-|

|--------------------------------------|------------------|
|--------------------------------------|------------------|
|--------2-5-5~2/5-2-------------9---7-|------------------|
|3-3~3/5-------------5-5~3/5-3-7---5---|3-3-3-3-5-5-5-5-3\|

|----|
|----|
|7-5-|
|----|
Suggest correction
comments
print report bad tab
4 comments total. Showing first comments.
-1 reply
coolboy17 52 Dec 12, 2012 08:21 PM

great tab but seems a little hard for this song but I dunno but preety good overall

+1 reply
benbop91 10 Oct 02, 2014 02:15 PM

Lack of accuracy. Clearly wrong. had to tab out my own because I didn't like this one, intro is fine its just the chorus that is a bit off.

0 reply
RickyRubio 459 May 24, 2016 07:01 AM

Lack of accuracy. Clearly wrong. had to tab out my own because I didn't like this one, intro is fine its just the chorus that is a bit off.

guest
You may want to rate the tab now too:
select rating
Wanna post a correction for this tab? Suggest correction