Oops, an error
Loading. Please wait.
We have Chord Pro version of Summer Paradise.
It's the closest thing you can get to the original song and it has interactive parts. Check out the tab »
×
20,980 views 15 this week
no commentswrite comment
1 2 3 4 5
x 3
add to favorites
launch autoscroll
font size
0
reset
how to read this tab
guitar tuner
Autoscroll
slow
fast
+/-
esc
set tempo
stop
Author
Difficulty
novice
Simple Plan
Summer Paradise
Get Your Heart On 2011

EADGBe

Intro
Rhythm
|-2----0----2----3----|
|-3----2----3----3----|
|-2-x5-2-x5-4-x5-0-x5-|
|-0----2----4----0----|
|------0----2----x----|
|----------------3----|
                        
Verse
Rhythm
|-2----0----2----3----|
|-3----2----3----3----|
|-2-x5-2-x5-4-x5-0-x5-|
|-0----2----4----0----|
|------0----2----x----| x2
|----------------3----|

Pre Chorus
Rhythm
|-2----3----2----0----2----3----2~-|
|-3----3----3----2----3----3----2~-|
|-4-x4-0-x4-2-x4-2-x4-4-x4-0-x4-3~-|
|-4----0----0----2----4----0----2~-|
|-2----x---------0----2----x----4~-|
|------3-------------------3----2~-|

Lead
|-2-------------3-------------2-------------0-------------2-------------3-------------2~-|
|---3---3-2-------3---3-2-------3---3-2-------2---2-0-------3---3-2-------3---3-2-----2~-|
|-----4-----4-4-----4-----4-4-----4-----4-4-----2-----2-2-----4-----4-4-----4-----4-4-3~-|
|-------------------------------------------------------------------------------------2~-|
|-------------------------------------------------------------------------------------4~-|
|-------------------------------------------------------------------------------------2~-|

Chorus
Rhythm
|-3----2----0----2--0-|----|-3----0----|
|-3----3----2----3--2-|----|-3----2----|
|-0-x2-2-x2-2-x2-4--2-|----|-0-x2-2-x3-|
|-0----0----2----4--2-|----|-0----2----|
|-x---------0----2--0-|-x3-|-x----0----|
|-3--------------2----|----|-3---------|

Lead
|---------------------|----|-----------|
|---------------------|----|-----------|
|------7--------------|----|-----------|
|-5----7-x2-7----9--7-|----|-5----7----|
|-5-x2-5----7-x3-9--7-|-x3-|-5-x2-7-x3-|
|-3---------5----7--5-|----|-3----5----|

Post Chorus
Rhythm
|-2-----|
|-3-----|
|-2-x21-|
|-0-----|
|-------|
|-------|

Lead
|----|
|----|
|-7~-|
|-7~-|
|-5~-|
|----|

Verse 2
Rhythm
|-2----0----2----3----|
|-3----2----3----3----|
|-2-x5-2-x5-4-x5-0-x5-|
|-0----2----4----0----|
|------0----2----x----| x2
|----------------3----|

Lead
|-------------------|-------------------|-------------------|----------------|
|---7---7---7---7-7-|---5---5---5---5-5-|---7---7---7---7-7-|-8--7--5--5-3-5-|
|-7-7-7-7-7-7-7-7-7-|-7-7-7-7-7-7-7-7-7-|-7-7-7-7-7-7-7-7-7-|-7--7--7--7-7-7-|
|-------------------|-------------------|-------------------|----------------|
|-------------------|-------------------|-------------------|----------------| x2
|-------------------|-------------------|-------------------|----------------|

Pre Chorus 2
Rhythm
|-2----3----2----0----2----3----2~-|
|-3----3----3----2----3----3----2~-|
|-4-x4-0-x4-2-x4-2-x4-4-x4-0-x4-3~-|
|-4----0----0----2----4----0----2~-|
|-2----x---------0----2----x----4~-|
|------3-------------------3----2~-|

Lead
|-2-------3-------2-------0-------2-------3-------2---2---2---2---|
|---3---3---3---3---3---3---2---2---3---3---3---3---2---2---2---2-|
|-----4-------4-------4-------2-------4-------4-------------------|
|-----------------------------------------------------------------|
|-----------------------------------------------------------------|
|-----------------------------------------------------------------|

Repeat Chorus
Repeat Post Chorus
Bridge
Rhythm
|-2----0----2----3----|
|-3----2----3----3----|
|-2-x5-2-x5-4-x5-0-x5-|
|-0----2----4----0----|
|------0----2----x----| x2
|----------------3----|

Lead
|-/10~----/9~---/7~-------|
|---------------------/8~-|
|-------------------------|
|-------------------------|
|-------------------------| x2
|-------------------------|

Pre Chorus 3
Rhythm
|-2~--3~--2~--0~--2~--3~--2~-|
|-3~--3~--3~--2~--3~--3~--2~-|
|-4~--0~--2~--2~--4~--0~--3~-|
|-4~--0~--0~--2~--4~--0~--2~-|
|-2~--x~------0~--2~--x~--4~-|
|-----3~--------------3~--2~-|

Repeat Chorus
Outro
Rhythm
|-2-----|
|-3-----|
|-2-x24-|
|-0-----|
|-------|
|-------|
 
Lead
|----|
|----|
|-7~-|
|-7~-|
|-5~-|
|----|
Suggest correction
Give kudos to tab author, rate the tab!
1 2 3 4 5
comments
print report bad tab
guest
You may want to rate the tab now too:
select rating
Wanna post a correction for this tab? Suggest correction