Oops, an error
Loading. Please wait.

Surrender Bass Tab

786 views 1 this week
2 commentsread comments
1 2 3 4 5
please rate
add to favorites
launch autoscroll
font size
0
reset
guitar tuner
Autoscroll
slow
fast
+/-
esc
set tempo
stop
Help us to improve Ultimate-Guitar.com Take our survey!
×
Author
Difficulty
intermediate
Surrender bass tab by Simple Plan

Tabbed by punkrocker4ever@virgilio.it
---------------------------------------------------------------------------

                       SURRENDER BY SIMPLE PLAN

tuning Eb,Ab,Db,Gb

Intro

Gb--------------------------------------------------------|
Db--------------------------------------------------------|
Ab-4h6h4-2222-2-2------------------2222-2-2----------7777-|
Eb----------------4444-4-4-0000-------------4444-4-4------|


Verse

Gb-------------------------------------------------------------------|
Db-------------------------------------------------------------------|
Ab-22222222------------------2-22-2222222222------------------2-22-2-|
Eb----------2222222200000000-----------------2222222200000000--------|


Pre-chorus

Gb------------------------------------------|
Db------------------------------------------|
Ab-222222--------222222-----222222----------|
Eb--------222222--------2-2--------222222-2-|


Chorus x2

Gb-----------------------------------|
Db-----------------------------------|
Ab-22222222--------------------------|
Eb----------444444442222222200000000-|


Post-Chorus

Gb-------|
Db-------|
Ab-2-----|
Eb---4-0-|

Verse

Pre-chorus2

Gb-----------------------------------------------------|
Db-----------------------------------------------------|
Ab-222222--------222222------222222--------------------|
Eb--------222222--------2s14--------2222222-1414141414-|


Chorus2

Gb---------------------------------------------------------------------------------------------------------------|
Db---------------------------------------------------------------------------------------------------------------|
Ab-22222222--------------------------22222222---------------22222222--------------------------22222222-----------|
Eb----------444444442222222200000000----------4444s16-0-4-2----------444444442222222200000000----------44444444--|

Gb---------------------|
Db---------------------|
Ab---------------------|
Eb-2222222200000000--0-|


Bridge

part one

Gb---------------------|
Db---------------------|
Ab---4h6---1h2---s7-7s-|
Eb-7-----4-----0-------|

part two

Gb----------------------|
Db----------------------|
Ab---4h6---1h2---s7-7h9-|
Eb-7-----4-----0--------|

then part one x2

part two x2

then

Gb---------------|
Db---------------|
Ab---4h6---1h2---|
Eb-7-----4-----0-|

Chorus2

Gb-------------------------------------------------------------------------------------------------------------------------------|
Db-------------------------------------------------------------------------------------------------------------------------------|
Ab-22222222--------------------------2222-2-2-------------------------------s777777779999991111313141414141414s------------------|
Eb----------444444442222222200000000----------44444444222222220000000000000------------------------------------4444444422222222--|

Gb---------------------------------------------------------------------------------------------------------|
Db---------------------------------------------------------------------------------------------------------|
Ab----------22222222------------------s77776776422222222------------------s77777777s22222222-666666664h6---|
Eb-00000000----------4444444422222222--------------------4444444422222222--------------------------------0-|


I'm not sure about the pre-chorus but the other parts are OK!
Suggest correction new What's this?
You can suggest a correction to this tab. Community and Mods will review your correction and vote to approve or reject it.
comments
We did not receive enough feedback on this tab! Please rate:
print report bad tab
1 2 3 4 5
2 comments total.
0 reply
spfan4eva 18 wrote on July 4 2006, 02:57 pm

brill tab dude u rock!!its the best surrender tab iv seen:D

0 reply
david dirnt 298 wrote on May 28 2007, 08:49 am

tnx u:D!

guest
You may want to rate the tab now too:
select rating
Please do not post tabs as comments. Select "correction" instead!