Oops, an error
Loading. Please wait.

Surrender Tab

version 1
version 1

Whole song

2,067 views 3 this week
no commentswrite comment
1 2 3 4 5
please rate
add to favorites
launch autoscroll
font size
0
reset
how to read this tab
guitar tuner
Autoscroll
slow
fast
+/-
esc
set tempo
stop
Help us to improve Ultimate-Guitar.com Take our survey!
×
Author
Difficulty
intermediate
band: Simple Plan
song;  Surrender
album: Fantastic Four album (track #11) 
tabbed by: nickster16

the tenth chord in the intro might sound a little weird…but overall, it should sound okay.

Intro

e|--3-3--3-5-3--1-1-1-1-1-1-1-1-1-1-1-1-1--3-5-3-1-1-1-1-3-5-5-5-5-5-6-6-6--|
B|--3-3--3-5-3--1-1-1-1-1-1-1-1-1-1-1-1-1--3-5-3-1-1-1-1-3-5-5-5-5-5-6-6-6--|
G|--5-5--5-7-5--3-3-3-3-2-3-3-3-3-2-3-3-3--5-7-5-3-3-3-3-5-7-7-7-7-7-8-8-8--|
D|--5-5--5-7-5--3-3-3-3-3-3-3-3-3-3-3-3-3--5-7-5-3-3-3-3-5-7-7-7-7-7-8-8-8--|
A|--3-3--3-5-3--1-1-1-1-3-1-1-1-1-1-1-1-1--3-5-3-1-1-1-1-3-5-5-5-5-5-6-6-6--|
E|--3-3--3-5-3--1-1-1-1-1-1-1-1-1-1-1-1-1--3-5-3-1-1-1-1-3-5-5-5-5-5-6-6-6--|

e|--3-5-3-1--|
B|--3-5-3-1--|
G|--5-7-5-3--|
D|--5-7-5-3--|
A|--3-5-3-1--|
E|--3-5-3-1--|

Verse x2

e|--1-1-1-1-1-1-1-1-1-1-1-1-1-1-1-1-1-1-1-1-1-1-1-1--|
B|--1-1-1-1-1-1-1-1-1-1-1-1-1-1-1-1-1-1-1-1-1-1-1-1--|
G|--3-3-3-3-3-3-2-2-2-2-2-2-1-1-1-1-1-1-3-3-3-3-3-3--|
D|--3-3-3-3-3-3-3-3-3-3-3-3-1-1-1-1-1-1-3-3-3-3-3-3--|
A|--1-1-1-1-1-1-3-3-3-3-3-3-1-1-1-1-1-1-1-1-1-1-1-1--|
E|--1-1-1-1-1-1-1-1-1-1-1-1-1-1-1-1-1-1-1-1-1-1-1-1--|

Pre-Chorus


e|--1-1-1-1-1-1-1-1-1-1-1-1-5-3-1-1-1-1-1-1-1-1-3----|
B|--1-1-1-1-1-1-1-1-1-1-1-1-5-3-1-1-1-1-1-1-1-1-3----|
G|--1-1-1-1-2-2-2-2-3-3-3-3-7-5-1-1-1-1-3-3-3-3-5----|
D|--1-1-1-1-3-3-3-3-3-3-3-3-7-5-1-1-1-1-3-3-3-3-5----|
A|--1-1-1-1-3-3-3-3-1-1-1-1-5-3-1-1-1-1-1-1-1-1-3----|
E|--1-1-1-1-1-1-1-1-1-1-1-1-5-3-1-1-1-1-1-1-1-1-3----|

Chorus 

e|--1-1-1-1-1-1-1-1-1-1-1-1-1-1-1-1-1-1-1-1-1-1-1-5--|
B|--1-1-1-1-1-1-1-1-1-1-1-1-1-1-1-1-1-1-1-1-1-1-1-5--|
G|--3-3-3-3-2-2-2-2-1-1-1-1-3-2-3-3-3-2-2-2-1-1-1-7--|
D|--3-3-3-3-3-3-3-3-1-1-1-1-3-3-3-3-3-3-3-3-1-1-1-7--|
A|--1-1-1-1-3-3-3-3-1-1-1-1-1-3-1-1-1-3-3-3-1-1-1-5--|
E|--1-1-1-1-1-1-1-1-1-1-1-1-1-1-1-1-1-1-1-1-1-1-1-5--|

Intro

e|--3-5-3--1-1-1—3-5-3|
B|--3-5-3--1-1-1—3-5-3|
G|--5-7-5--3-2-1—5-7-5|
D|--5-7-5--3-2-1—5-7-5|
A|--3-5-3--1-3-1—3-5-3|
G|--3-5-3--1-1-1—3-5-3|

Verse x2

e|--1-1-1-1-1-1-1-1-1-1-1-1-1-1-1-1-1-1-1-1-1-1-1-1--|
B|--1-1-1-1-1-1-1-1-1-1-1-1-1-1-1-1-1-1-1-1-1-1-1-1--|
G|--3-3-3-3-3-3-2-2-2-2-2-2-1-1-1-1-1-1-3-3-3-3-3-3--|
D|--3-3-3-3-3-3-3-3-3-3-3-3-1-1-1-1-1-1-3-3-3-3-3-3--|
A|--1-1-1-1-1-1-3-3-3-3-3-3-1-1-1-1-1-1-1-1-1-1-1-1--|
E|--1-1-1-1-1-1-1-1-1-1-1-1-1-1-1-1-1-1-1-1-1-1-1-1--|


Chorus


e|--1-1-1-1-1-1-1-1-1-1-1-1-1-1-1-1-1-1-1-1-1-1-1-5--|
B|--1-1-1-1-1-1-1-1-1-1-1-1-1-1-1-1-1-1-1-1-1-1-1-5--|
G|--3-3-3-3-2-2-2-2-1-1-1-1-3-2-3-3-3-2-2-2-1-1-1-7--|
D|--3-3-3-3-3-3-3-3-1-1-1-1-3-3-3-3-3-3-3-3-1-1-1-7--|
A|--1-1-1-1-3-3-3-3-1-1-1-1-1-3-1-1-1-3-3-3-1-1-1-5--|
E|--1-1-1-1-1-1-1-1-1-1-1-1-1-1-1-1-1-1-1-1-1-1-1-5--|

Bridge 

e|----------------------------------------------8-|
B|--------------------------------------------6---|
G|------7---8-7----7----8-7-----7---8-7-----8-----|
D|--8-8---8-----8-8---8-----8-8---8-----8-8-------|
A|------------------------------------------------|
E|------------------------------------------------|

Chorus


e|--1-1-1-1-1-1-1-1-1-1-1-1-1-1-1-1-1-1-1-1-1-1-1-5--|
B|--1-1-1-1-1-1-1-1-1-1-1-1-1-1-1-1-1-1-1-1-1-1-1-5--|
G|--3-3-3-3-2-2-2-2-1-1-1-1-3-2-3-3-3-2-2-2-1-1-1-7--|
D|--3-3-3-3-3-3-3-3-1-1-1-1-3-3-3-3-3-3-3-3-1-1-1-7--|
A|--1-1-1-1-3-3-3-3-1-1-1-1-1-3-1-1-1-3-3-3-1-1-1-5--|
E|--1-1-1-1-1-1-1-1-1-1-1-1-1-1-1-1-1-1-1-1-1-1-1-5--|

Outro 

e|-1-1-1-1-1-1-1-1-1-1-1-1-1-1--|
B|-1-1-1-1-1-1-1-1-1-1-1-1-1-1--|
G|-3-3-3-3-2-2-2-2-1-1-1-1-3-2--|
D|-3-3-3-3-3-3-3-3-1-1-1-1-3-3--|
A|-1-1-1-1-3-3-3-3-1-1-1-1-1-3--|
E|-1-1-1-1-1-1-1-1-1-1-1-1-1-1--|

e|-1-1-1-1-3-3-3-3-5-5-5-5-6-6--|
B|-1-1-1-1-3-3-3-3-5-5-5-5-6-6--|
G|-3-3-3-3-5-5-5-5-7-7-7-7-8-8--|
D|-3-3-3-3-5-5-5-5-7-7-7-7-8-8--|
A|-1-1-1-1-3-3-3-3-5-5-5-5-6-6--|
E|-1-1-1-1-3-3-3-3-5-5-5-5-6-6--|

e|-1-1-1-1-3-3-3-3-1-1-1--|
B|-1-1-1-1-3-3-3-3-1-1-1--|
G|-3-3-3-3-5-5-5-5-3-2-1--|
D|-3-3-3-3-5-5-5-5-3-3-1--|
A|-1-1-1-1-3-3-3-3-1-3-1--|
E|-1-1-1-1-3-3-3-3-1-1-1--|

Suggest correction
Give kudos to tab author, rate the tab!
1 2 3 4 5
comments
print report bad tab
guest
You may want to rate the tab now too:
select rating
Please do not post tabs as comments. Select "correction" instead!