Oops, an error
Loading. Please wait.

Surrender Tab

version 2
version 2

Whole song

1,426 views 1 this week
1 commentread comment
1 2 3 4 5
please rate
add to favorites
launch autoscroll
font size
0
reset
how to read this tab
guitar tuner
Autoscroll
slow
fast
+/-
esc
set tempo
stop
Help us to improve Ultimate-Guitar.com Take our survey!
×
Author
Difficulty
intermediate
 ------------
|  Surrender |
 ------------
Band: Simple Plan
Song: Surrender
Album: Fantastic 4 soundtrack
1st Guitar: Jeff Stinco
2nd Guitar: Sebastien Lefebvre
Tabbed by: Raul Gomez

I definitely think that this is one of SP's best songs, i couldn't find an accurate tab for
this song, so i made this one and i hope that is right.
Any comments to:simplepunk31@hotmail.com.

PD: I'm looking for people to start a band. Help me.

PLEASE RATE THIS TAB!!!!!!!!!!!!!!!

 -----
|Intro|
 -----

1ST GUITAR (Light Distortion)

e|-------------------------------------------------------------------------|
B|-5-5-5-----------------------------5-5-5---------------------------------|
G|------7-7-7-6--6-8-7-7-6--6-7-7-9~------7-7-7-6--8-10-9-9-8-12--6-6-9-7~-|
D|-------------------------------------------------------------------------|
A|-------------------------------------------------------------------------|
E|-------------------------------------------------------------------------|

2nd Guitar (Distortion)

e|-------------------------------------------------------------|
B|-------------------------------------------------------------|
G|-666-----------------------666------------------------66-----|
D|-666-666-4--6666-4--6666~--666-666-4--6666-4--6666-8~-66-6-4-|
A|-444-666-4--6666-4--6666~--444-666-4--6666-4--6666-8~-44-6-4-|
E|-----444-2--4444-2--4444~------444-2--4444-2--4444-6~----4-2-|

 -----
|Verse|
 -----

My mother told me
Yes se told me...

The verse use a particular strum i'll try to make you guys understand but is easier if 
listen to the song

2nd Guitar

e|------------------------------------------|
B|------------------------------------------|
G|----------------------------------6-x-----|
D|-666-x-666--444-x-444--222-x-222--6-x-66--|
A|-666-x-666--444-x-444--222-x-222--4-x-66--|
E|-444-x-444--222-x-222--000-x-000------44--|
      P.M        P.M        P.M      P.M
e|------------------------------------------|
B|------------------------------------------|
G|----------------------------------6-x-----|
D|-666-x-666--444-x-444--222-x-222--6-x-66--|
A|-666-x-666--444-x-444--222-x-222--4-x-66--|
E|-444-x-444--222-x-222--000-x-000------44--|
      P.M        P.M        P.M      P.M

Pre-Chorus

And just the other day
I heard them talking in the halls...

2nd Guitar (Distortion)    1st Guitar (Light Distortion)

e|----------------------| e|-------------------------|
B|----------------------| B|-------------------------|
G|----------------------| G|-17-17-16-16-15-15-14-14-|
D|-2~-4~-2~--8-6-4~--2~-| D|-------------------------|
A|-2~-4~-2~--8-6-4~--2~-| A|-------------------------|
E|-0~-2~-0~--6-4-2~--0~-| E|-------------------------|
                                         /\
                        This part is not really accurate but i made this one
 ------
|Chorus|
 ------

Mommy's all right
Daddy's alright...

2nd Guitar (Distortion)

e|-------------------------------------------------|
B|-------------------------------------------------|
G|-------------------------------------------------|
D|-888~-666~-444~-222~-8888-x-6666--444~-222~-444~-|
A|-888~-666~-444~-222~-8888-x-6666--444~-222~-444~-|
E|-666~-444~-222~-000~-6666-x-4444--222~-000~-222~-|
                   surrender,surrender

1st Guitar (Light Distortion)

e|------------------------------------|
B|-5-5-5------------------------------|
G|------7-7-7-6--6-8-7-7-6--6-7-7-9~--|
D|------------------------------------|
A|------------------------------------|
E|------------------------------------|

 ------
|Bridge|
 ------

1ST GUITAR (CLEAN)

This is definitely the most difficult part of the song,the guitar is difficult to hear,
you must listen really carefully to do this.

e|------------------------------5-------7-|
B|-----5--6-5------4-----5--4-5---6-------|
G|---5--------6--4-----5------------6-5---| Repeat til' the end of the bridge
D|-3-----------------3--------------------|
A|----------------------------------------|
E|----------------------------------------|

Then repeat the chorus til the end, and that's it i think it's pretty accurate, there are
some parts after the bridge a lil' different in the chorus you guys'll have to figure out
by yourselves cuz' i'm too lazy. I worked a lot on this, i hope that help you playing,
so any comments or whatever please email me: simplepunk31@hotmail.com
Suggest correction
What's this?
You can suggest a correction to this tab. Community and Mods will review your correction and vote to approve or reject it.
comments
We did not receive enough feedback on this tab! Please rate:
print report bad tab
1 2 3 4 5
1 comment total.
0 reply
to da max 13 wrote on May 15 2007, 05:01 am

This tab is completely wrong. It doesn't sound anything like the song! is the tuning right? well i was wandering if you could PLEASE right a decent tab for this song because i can't write tab very well and no-one else has really written a good one either..... except in bass..*scowl*.. thanx!

guest
You may want to rate the tab now too:
select rating
Please do not post tabs as comments. Select "correction" instead!