Oops, an error
Loading. Please wait.

Take My Hand Bass Tab

version 1
version 1

Whole song

Interactive

9,305 views 3 this week
2 commentsread comments
1 2 3 4 5
x 3
add to favorites
launch autoscroll
font size
0
reset
guitar tuner
Autoscroll
slow
fast
+/-
esc
set tempo
stop
Help us to improve Ultimate-Guitar.com Take our survey!
×
Author
Take my hand bass tab by andreqpo@hotmail.it

Artist:Simple plan
Bassist:David Desrosiers

Tuning:  Db Ab Db Gb

s=slide
~=let ring

Intro
Gb--------------------------------------|   ----------|
Db--------------------------------------|x2 ----------|
Ab-------------11111111--------33333333-|   ----------|
Db-12s-00000000--------33333333---------|   -0~--s12s-|

verse
Gb----------------------------------|
Db----------------------------------|x2
Ab---------11111111--------33333333-|
Db-00000000--------33333333---------|

Pre-chorus
Gb---------------------------------------------------------------------------|
Db---------------------------------------------------------------------------|
Ab-111111113333333355--55--55--55--111111113333333300000000s1212121212121212-|
Db-------------------00--00--00--00------------------------------------------|

Chorus
Gb--------------------------------------------------------------------------------------------------|
Db--------------------------------------------------------------------------------------------------|
Ab---------11111111--------33333333--------11111111--------3333303355555555111111118888888833333333-|
Db-00000000--------33333333--------00000000--------33333333-----------------------------------------|

---------------------------|
---------------------------|
---------11111111000000000-|
-00000000------------------|

Post chorus
Gb----------------------------------------------------------|
Db----------------------------------------------------------|
Ab---------11111111--------33333333--------11111111---------|
Db-00000000--------33333333--------00000000--------33333333-|

verse2
Gb------------------------------------------------------------------|
Db------------------------------------------------------------------|
Ab---------11111111--------333333345555555511111111--------33333333-|
Db-00000000--------33333333------------------------33333333---------|

Pre-chorus

Chorus

Bridge
Gb----------------------------------|
Db----------------------------------|x4
Ab---------11111111-----------------|
Db-00000000--------3333333355555555-|

Gb----------------------------------------------------------------------------------------------------|
Db-------------------------------------------------------------------------14------14--------14--14---|
Ab-111111113333333355--55--55--5-5--11111111333333330000000000000000s121212--121212--12121212--12--12-|
Db-------------------00--00--00-7-7-------------------------------------------------------------------|

''slow''chorus
Gb-W-------------------------------------------------------------------------|
Db-A-------------------------------------------------------------------------|
Ab-I-3-------1-11-11--------3-33-303--------1-11-1110000000s1212121212121212-|
Db-T---0-0000-------3-33-33---------0-00-000---------------------------------|

Outro chorus
Gb--------------------------------------------------------------------------------------------------|
Db--------------------------------------------------------------------------------------------------|
Ab---------11111111--------33333333--------1111111188888888777788335555555511111111--------33333333-|
Db-00000000--------33333333--------00000000----------------------------------------33333333---------|

----------------------------------------------------------|
----------------------777-777-77--------------------------|
---------11111111000s7---7---7--s121212121212121212-------|
-00000000---------------------------------------------0-0-|

It's 100% right! enjoy!!
Suggest correction
Give kudos to tab author, rate the tab!
1 2 3 4 5
comments
print report bad tab
2 comments total.
0 reply
brazen 115 Feb 23, 2008 02:15 PM

wow man that was DEAD on. at first i didnt drop Db my string and i was thinkin "this kids got some of it right" but i eventually caught on the tuning. good tab tho, this is a really good song. thanks

0 reply
david dirnt 292 Feb 25, 2008 12:37 PM

tnx u very much!!

guest
You may want to rate the tab now too:
select rating
Wanna post a correction for this tab? Suggest correction