Oops, an error
Loading. Please wait.

Take My Hand Bass Tab

version 2
version 2

Whole song

Interactive

10,038 views 9 this week
2 commentsread comments
1 2 3 4 5
excellent!
x 7
add to favorites
launch autoscroll
font size
0
reset
guitar tuner
Autoscroll
slow
fast
+/-
esc
set tempo
stop
Help us to improve Ultimate-Guitar.com Take our survey!
×
Author
Difficulty
novice
Take my hand - simple plan    bass tab


/ slide


intro

G:----------------------------------|
D:----------------------------------|    
A:--3/------------------------------|
D:----------------------------------|


G:-------------------------------------------|
D:-------------------------------------------|   
A:-44444444--00000000-------------22222222---|
D:---------------------000000000-------------|

G:--------------------------------------------|
D:--------------------------------------------|   
A:-44444444--00000000-------------22222222--4-|
D:---------------------000000000--------------|

verse 
G:-------------------------------------------|
D:-------------------------------------------|   x2
A:-44444444--00000000-------------22222222---|
D:---------------------000000000-------------|

pre chorus 
G:----------------------------------|
D:----------------------------------|    
A:-00000000--222222222--44444444----|
D:----------------------------------|

G:----------------------------------|
D:----------------------------------|    
A:-00000000--222222222--------------|
D:----------------------4-4-4-------|


chorus 
G:-------------------------------------------|
D:-------------------------------------------|  x3
A:-44444444--00000000-------------22222222---|
D:---------------------000000000-------------|

G:-------------------------------------------|
D:-------------------------------------------|  
A:-44444444--00000000------------------------|
D:---------------------44444444--------------|



G:-------------------------------------------|
D:-------------------------------------------|
A:-44444444--00000000-------------22222222---|   x2
D:---------------------000000000-------------|


verse 
G:-------------------------------------------|
D:-------------------------------------------|
A:-44444444--00000000-------------22222222---|   x2
D:---------------------000000000-------------|


pre chorus 
G:----------------------------------|
D:----------------------------------|    
A:-00000000--222222222--44444444----|
D:----------------------------------|

G:----------------------------------|
D:----------------------------------|    
A:-00000000--222222222--------------|
D:----------------------4-4-4-------|


chorus
G:-------------------------------------------|
D:-------------------------------------------|  x3
A:-44444444--00000000-------------22222222---|
D:---------------------000000000-------------|


G:-------------------------------------------|
D:-------------------------------------------|  
A:-44444444--00000000------------------------|
D:---------------------44444444--------------|


break

G:----------------------------------|
D:----------------------------------|    
A:--4----4----4----4----------------|
D:----------------------------------|

G:----------------------------------|
D:----------------------------------|    
A:-00000000--222222222--44444444----|
D:----------------------------------|

G:--------------------------------------------|
D:--------------------------------------------|    
A:-00000000--222222222------------------------|
D:----------------------4-4-4-4444-4-4-4-4444-|


G:-------------------------------------------|
D:-------------------------------------------|  
A:-44444444--00000000-------------22222222---|
D:---------------------000000000-------------|


G:-------------------------------------------|
D:-------------------------------------------|  
A:-44444444--00000000------------------------|
D:---------------------44444444--------------|



chorus 

G:-------------------------------------------|
D:-------------------------------------------|  x3
A:-44444444--00000000-------------22222222---|
D:---------------------000000000-------------|


G:-------------------------------------------|
D:-------------------------------------------|  
A:-44444444--00000000------------------------|
D:---------------------4444444444444444------|




By meangirl
Suggest correction
comments
print report bad tab
2 comments total.
0 reply
mathSPbass 10 wrote on June 19 2012, 11:11 am

WAW! the tab is damn the same as the song:) now, i can play it really better :)

0 reply
mathSPbass 10 wrote on June 19 2012, 11:11 am

but... i don't hear a slide at the begening of the song

guest
You may want to rate the tab now too:
select rating
Please do not post tabs as comments. Select "correction" instead!