Oops, an error
Loading. Please wait.

Take My Hand Tab

version 3
version 3

Whole song

Interactive

2,925 views 1 this week
no commentswrite comment
1 2 3 4 5
please rate
add to favorites
launch autoscroll
font size
0
reset
how to read this tab
guitar tuner
Autoscroll
slow
fast
+/-
esc
set tempo
stop
Help us to improve Ultimate-Guitar.com Take our survey!
×
Intro Riff (also repeated alot during the song):

e|---------0----------------4----------------0----------------4-------|
b|-2-2-0-2---2-0-2--2-2-0-2---2-0-2--2-2-0-2---2-0-2--2-2-0-2---2-0-2-|
g|--------------------------------------------------------------------|
d|--------------------------------------------------------------------|
a|--------------------------------------------------------------------|
E|--------------------------------------------------------------------|

Melody (unfinished):

e|----------------------------------------------------|
b|----------------------------------------------------|
g|-9-9-9-9-9-9-9-9-9-9-9-8-9--9-9-9-9-9-9-9-9-9-9-8-6-|
d|----------------------------------------------------|
a|----------------------------------------------------|
E|----------------------------------------------------|

Chords (power chords): 

e|------------------------------------|
b|------------------------------------|
g|------------------------------------|
d|-6-6-6-6-----------9-9-9-9----------|
a|-4-4-4-4--7-7-7-7--7-7-7-7--9-9-9-9-|
E|----------5-5-5-5-----------7-7-7-7-|
comments
We did not receive enough feedback on this tab! Please rate:
print report bad tab
1 2 3 4 5
I want to post or [tab]
guest
You may want to rate the tab now too:
select rating
Please do not post tabs as comments. Select "correction" instead!