Oops, an error
Loading. Please wait.

Take My Hand Tab

version 4
version 4

Whole song

Interactive

3,357 views 1 this week
no commentswrite comment
1 2 3 4 5
please rate
add to favorites
launch autoscroll
font size
0
reset
how to read this tab
guitar tuner
Autoscroll
slow
fast
+/-
esc
set tempo
stop
Help us to improve Ultimate-Guitar.com Take our survey!
×
Intro: Guitar 2 (x1)
E|-------------------------------------------------------------------|
B|-------------------------------------------------------------------|
G|-------------------------------------------------------------------|
D|-------------------------7-----------------------------------------|
A|----------7-------------------------------7-------7----------------|
D|--9-9-7-9---9-7-9-9-9-7-9---9-7-9-9-9-7-9---9-7-9---9-7-9-7-9-7~---|

E|-------------------------------------------------------------------|
B|-------------------------------------------------------------------|
G|-------------------------------------------------------------------|
D|-------------------------7-----------------------------------------|
A|----------7-------------------------------7------------------------|
D|--9-9-7-9---9-7-9-9-9-7-9---9-7-9-9-9-7-9---9-11-11-9-11-12-11-9-7-|

E|-------------------------------------------------------------------|
B|-------------------------------------------------------------------|
G|-------------------------------------------------------------------|
D|-------------------------7-----------------------------------------|
A|----------7-------------------------------7-------7----------------|
D|--9-9-7-9---9-7-9-9-9-7-9---9-7-9-9-9-7-9---9-7-9---9-7-9-7-9-7~---|

Guitar 1 (x2)
>>>>>>>>>>>>>>>>>>>>>>>>>>>>>>>>>pick slide>>>>>>
E|-------------------------------------------------------------------|
B|-------------------------------------------------------------------|
G|--6-------------9--------------------------------------------------|
D|--6-(x8)-7------9-(x8)-9-------------------------------------------|
A|--4------7-(x8)-7------9-(x8)--------------------------------------|
D|---------5-------------7-------------------------------------------|

Verse: Bass

Pre-chorus: Guitar 1 (x2)
E|-------------------------------------------------------------------|
B|-------------------------------------------------------------------|
G|--6------8------9--------------------------------------------------|
D|----(x8)---(x8)---(x16)--------------------------------------------|
A|--4------6------7--------------------------------------------------|
D|-------------------------------------------------------------------|

Guitar 2
E|-------------------------------------------------------------------|
B|-------------------------------------------------------------------|
G|-------------------------------------------------------------------|
D|-------------------------------------------------------------------|
A|-------------------------------------------------------------------|
D|-------------------------------------------------------------------|

Chorus: Guitar 1 and 2 (x3)
E|-------------------------------------------------------------------|
B|-------------------------------------------------------------------|
G|--6-------------9--------------------------------------------------|
D|--6-(x8)-7------9-(x8)-9-------------------------------------------|
A|--4------7-(x8)-7------9-(x8)--------------------------------------|
D|---------5-------------7-------------------------------------------|

(x1)
E|-------------------------------------------------------------------|
B|-------------------------------------------------------------------|
G|--6-------------9--------------------------------------------------|
D|--6-(x8)-7------9-(x8)-9-------------------------------------------|
A|--4------7-(x8)-7------9-(x1)--------------------------------------|
D|---------5-------------7-------------------------------------------|

Guitar 2
E|-------------------------------------------------------------------|
B|-------------------------------------------------------------------|
G|-------------------------------------------------------------------|
D|-------------------------------------------------------------------|
A|-------------------------------------------------------------------|
D|-----------------------11-11-9-11-12-11-9-7------------------------|
 
Intro:Guitar 2 (x1)
E|-------------------------------------------------------------------|
B|-------------------------------------------------------------------|
G|-------------------------------------------------------------------|
D|-------------------------7-----------------------------------------|
A|----------7-------------------------------7-------7----------------|
D|--9-9-7-9---9-7-9-9-9-7-9---9-7-9-9-9-7-9---9-7-9---9-7-9-7-9-7~---|

E|-------------------------------------------------------------------|
B|-------------------------------------------------------------------|
G|-------------------------------------------------------------------|
D|-------------------------7-----------------------------------------|
A|----------7-------------------------------7------------------------|
D|--9-9-7-9---9-7-9-9-9-7-9---9-7-9-9-9-7-9---9-11-11-9-11-12-11-9-7-|

Guitar 1(x1)
E|-------------------------------------------------------------------|
B|-------------------------------------------------------------------|
G|--6-------------9--------------------------------------------------|
D|--6-(x8)-7------9-(x8)-9-------------------------------------------|
A|--4------7-(x8)-7------9-(x8)--------------------------------------|
D|---------5-------------7-------------------------------------------|

(x1)
E|-----------------------------------------------------------------------|
B|-----------------------------------------------------------------------|
G|--6-------------9-------------------------------------------------9-9--|
D|--6-(x8)-7------9-(x8)-9-----------------------------------------------|
A|--4------7-(x8)-7------9-(x1)-------------------------------------7-7--|
D|---------5-------------7-----------------------------------------------|

Verse 2: Bass
Guitar 1
E|---------------------------------------------------------------------|
B|---------------------------------------------------------------------|
G|--9-9----------------------------------------------------------------|
D|------(x3)-----------------------------------------------------------|
A|--7-7----------------------------------------------------------------|
D|---------------------------------------------------------------------|

Guitar 2
E|-------------------------------------------------------------------|
B|-------------------------------------------------------------------|
G|-------------------------------------------------------------------|
D|-------------------------------------------------------------------|
A|-------------------------------------------------------------------|
D|-------------------------------------------------------------------|

Pre-chorus: Guitar 1 (x2)
E|-------------------------------------------------------------------|
B|-------------------------------------------------------------------|
G|--6------8------9--------------------------------------------------|
D|----(x8)---(x8)---(x16)--------------------------------------------|
A|--4------6------7--------------------------------------------------|
D|-------------------------------------------------------------------|

Guitar 2
E|-------------------------------------------------------------------|
B|-------------------------------------------------------------------|
G|-------------------------------------------------------------------|
D|-------------------------------------------------------------------|
A|-------------------------------------------------------------------|
D|-------------------------------------------------------------------|

Chorus: Guitar 1 and 2 (x3)
E|-------------------------------------------------------------------|
B|-------------------------------------------------------------------|
G|--6-------------9--------------------------------------------------|
D|--6-(x8)-7------9-(x8)-9-------------------------------------------|
A|--4------7-(x8)-7------9-(x8)--------------------------------------|
D|---------5-------------7-------------------------------------------|

(x1)
E|-------------------------------------------------------------------|
B|-------------------------------------------------------------------|
G|--6----------------------------------------------------------------|
D|--6-(x8)-6---------------------------------------------------------|
A|--4------6-(x16)---------------------------------------------------|
D|---------4---------------------------------------------------------|

Bridge: Guitar 2
E|-------------------------------------------------------------------|
B|-------------------------------------------------------------------|
G|--9--------9-------9-----------------------------------------------|
D|---8--8-9~--8-8-9~--8----------------------------------------------|
A|----7--------7-------7~--------------------------------------------|
D|-------------------------------------------------------------------|

Guitar 1
E|-------------------------------------------------------------------|
B|-------------------------------------------------------------------|
G|-------------------------------------------------------------------|
D|-------------------------------------------------------------------|
A|-------------------------------------------------------------------|
D|-------------------------------------------------------------------|

Solo: Guitar 2

Guitar 1
e|------------------------------------------------------------------------|
B|------------------------7-----------------------------------------------|
G|--6-6---6-7-6--6-6-6--6---6---6-6-6--6-7-6---6-8-8-6-8-9-8-6-6----------|
D|-----7-------7------7-------7-------7------7----------------------------|
A|------------------------------------------------------------------------|
E|------------------------------------------------------------------------|

e|-------------------------------------------------------------------------|
B|------------------------7------------------------------------------------|
G|--6-6---6-7-6--6-6-6--6---6---6--11b-11b-11b-13b--9b11p9--16b-16b-16b18b-|
D|-----7-------7------7-------7--------------------------------------------|
A|-------------------------------------------------------------------------|
E|-------------------------------------------------------------------------|

Guitar 1 (x2)
E|--------------------------------------------------------------------|
B|--------------------------------------------------------------------|
G|--------------------------------------------------------------------|
D|--7------9------13--------------------------------------------------|
A|--7-(x8)-9-(x8)-11-(x16)--------------------------------------------|
D|--5------7------11--------------------------------------------------|

After solo: Guitar 1 (x2)
E|--------------------------------x-x--------------------------------|
B|--------------------------------x-x--------------------------------|
G|--------------------------------x-x--------------------------------|
D|--9---10--9------9---10--9------x-x--------------------------------|
A|---8-------8--9---8-------8--9--x-x--------------------------------|
D|----7-------7------7-------7----x-x--------------------------------|

Guitar 1
E|-------------------------------------------------------------------|
B|-------------------------------------------------------------------|
G|-------------------------------------------------------------------|
D|-------------------------------------------------------------------|
A|-------------------------------------------------------------------|
D|-------------------------------------------------------------------|
Guitar 1 and 2 (x3)
E|-------------------------------------------------------------------|
B|-------------------------------------------------------------------|
G|--6-------------9--------------------------------------------------|
D|--6-(x8)-7------9-(x8)-6-------------------------------------------|
A|--4------7-(x8)-7------6(x16)--------------------------------------|
D|---------5-------------4-------------------------------------------|

Chorus:Guitar 1 and 2 (x3)
E|-------------------------------------------------------------------|
B|-------------------------------------------------------------------|
G|--6-------------9--------------------------------------------------|
D|--6-(x8)-7------9-(x8)-6-------------------------------------------|
A|--4------7-(x8)-7------6(x8)---------------------------------------|
D|---------5-------------4-------------------------------------------|

Guitar 1 and 2 (x1)
E|------------------------------------------------------------|
B|------------------------------------------------------------|
G|--6---------------------------------------------------------|
D|--6-(x8)-7------6-------------------------------------------|
A|--4------7-(x8)-6(x16)--------------------------------------|
D|---------5------4-------------------------------------------|

End:
Guitar 2
E|-------------------------------------------------------------------|
B|-------------------------------------------------------------------|
G|---------------------------------------------6-6-------------------|
D|---------------------------------------------6-6-------------------|
A|---------------------------------------------4-4-------------------|
D|-----------------------11-11-9-11-12-11-9-7------------------------|

Guitar 1
E|-------------------------------------------------------------------|
B|-------------------------------------------------------------------|
G|---------------------------------------------6-6-------------------|
D|---------------------------------------------6-6-------------------|
A|---------------------------------------------4-4-------------------|
D|-------------------------------------------------------------------|

Suggest correction
What's this?
You can suggest a correction to this tab. Community and Mods will review your correction and vote to approve or reject it.
comments
We did not receive enough feedback on this tab! Please rate:
print report bad tab
1 2 3 4 5
guest
You may want to rate the tab now too:
select rating
Please do not post tabs as comments. Select "correction" instead!