Oops, an error
Loading. Please wait.

Thank You Tab

version 2
version 2

Whole song

Interactive

871 views 1 this week
no commentswrite comment
1 2 3 4 5
please rate
add to favorites
launch autoscroll
font size
0
reset
how to read this tab
guitar tuner
Autoscroll
slow
fast
+/-
esc
set tempo
stop
Help us to improve Ultimate-Guitar.com Take our survey!
×
Author
Difficulty
intermediate
This is my first tab.

Enjoy.



Intro 

Lead Guitar
e|----------------------------------------------------------------------|
B|----------------------------------------------------------------------|
G|-11--10-8--10-8-6---11--10-8--10-8-6--8--10--6--6--6--8--10--6--6--6--|
D|-x---x-x---x-x-x----x---x-x---x-x-x---x--x---x--x--x--x--x---x--x--x--|
A|-9---8-6---8-6-4----9---8-6---8-6-4---6--8---4--4--4--6--8---4--4--4--|
E|----------------------------------------------------------------------|

e|---------------------------------------------
B|---------------------------------------------
G|--15--13-11--13-11-10---15--13-11--13-11-10--
D|--x---x--x---x--x--x----x---x--x---x--x--x---
A|--13--11-9---11-9--8----13--11-9---11-9--8---
E|---------------------------------------------

e|---------------------------------------------|
B|---------------------------------------------|
G|--11--13--11--11--11---11--13--11--13-11-10--|
D|--x---x---x---x---x----x---x---x---x--x--x---|
A|--9---11--9---9---9----9---11--9---11-9--8---|
E|---------------------------------------------|


Rhythm Guitar(Same strumming pattern as lead)
e|----------------------------------------------------------------------|
B|----------------------------------------------------------------------|
G|-6---6-6---6-6-6----6---6-6---6-6-6-----------------------------------|
D|-6---6-6---6-6-6----6---6-6---6-6-6---4--4---4--4--4---4--4---4--4--4-| x2
A|-4---4-4---4-4-4----4---4-4---4-4-4---4--4---4--4--4---4--4---4--4--4-|
E|--------------------------------------2--2---2--2--2---2--2---2--2--2-|


First Verse

Rhythm Guitar
e|----------|  
B|----------|
G|-6--------|  Let it ring
D|-6--------|  
A|-4--------|
E|----------|



Bridge

Both Guitars
e|-----------------------------------------------------------------------|
B|-----------------------------------------------------------------------|
G|--8---8----------------6---6---------------8---8-----------------------|
D|--8---8-4----4--4--4---4---4-6----6--6--6--8---8-4----4--4--4-----6----|
A|--6---6-4----4--4--4---4---4-4----4--4--4--6---6-4----4--4--4-----4x8--|
E|--------2----2--2--2---------4----4--4--4--------2----2--2--2-----4----|


Chorus

Both Guitars
e|-------------------------------------|
B|-------------------------------------|
G|--66666666---------------------------|
D|--44444444444444448888888866666666---| 
A|--44444444444444448888888866666666---|
E|----------222222226666666644444444---|

e|-------------------------------------|
B|-------------------------------------|
G|--66666666---------------------------|
D|--4444444444444444888888886----------|Let the last note ring. 
A|--4444444444444444888888886----------|
E|----------22222222666666664----------|


Lead Guitar
e|----------------------------------------------------------------------|
B|----------------------------------------------------------------------|
G|-11--10-8--10-8-6---11--10-8--10-8-6--8--10--6--6--6--8--10--6--6--6--|
D|-x---x-x---x-x-x----x---x-x---x-x-x---x--x---x--x--x--x--x---x--x--x--|
A|-9---8-6---8-6-4----9---8-6---8-6-4---6--8---4--4--4--6--8---4--4--4--|
E|----------------------------------------------------------------------|

e|---------------------------------------------
B|---------------------------------------------
G|--15--13-11--13-11-10---15--13-11--13-11-10--
D|--x---x--x---x--x--x----x---x--x---x--x--x---
A|--13--11-9---11-9--8----13--11-9---11-9--8---
E|---------------------------------------------

e|---------------------------------------------|
B|---------------------------------------------|
G|--11--13--11--11--11---11--13--11--13-11-10--|
D|--x---x---x---x---x----x---x---x---x--x--x---|
A|--9---11--9---9---9----9---11--9---11-9--8---|
E|---------------------------------------------|


Rhythm Guitar(Same strumming pattern as lead)
e|----------------------------------------------------------------------|
B|----------------------------------------------------------------------|
G|-6---6-6---6-6-6----6---6-6---6-6-6-----------------------------------|
D|-6---6-6---6-6-6----6---6-6---6-6-6---4--4---4--4--4---4--4---4--4--4-| x2
A|-4---4-4---4-4-4----4---4-4---4-4-4---4--4---4--4--4---4--4---4--4--4-|
E|--------------------------------------2--2---2--2--2---2--2---2--2--2-|


Second Verse
Both Guitars
e|----------------------------------------------------------------
B|----------------------------------------------------------------
G|--6--6-6--6-6666--6--6-6--6-6666--------------------------------
D|--6--6-6--6-6666--6--6-6--6-6666--4--4-4--4-4444--4--4-4--4-4444
A|--4--4-4--4-4444--4--4-4--4-4444--4--4-4--4-4444--4--4-4--4-4444
E|----------------------------------2--2-2--2-2222--2--2-2--2-2222
              ....            ....            ....            ....


e|------------------------------------------------------------------|
B|------------------------------------------------------------------|
G|--6--6-6--6-6666--6--6-6--6-6666----------------------------------|
D|--6--6-6--6-6666--6--6-6--6-6666--4-4--4--4-4--4--4-4--4--4-4--4--|
A|--4--4-4--4-4444--4--4-4--4-4444--4-4--4--4-4--4--4-4--4--4-4--4--|
E|----------------------------------2-2--2--2-2--2--2-2--2--2-2--2--|
              ....            ....       .       .       .       .


Bridge

Both Guitars
e|-----------------------------------------------------------------------|
B|-----------------------------------------------------------------------|
G|--8---8----------------6---6---------------8---8-----------------------|
D|--8---8-4----4--4--4---4---4-6----6--6--6--8---8-4----4--4--4-----6----|
A|--6---6-4----4--4--4---4---4-4----4--4--4--6---6-4----4--4--4-----4x8--|
E|--------2----2--2--2---------4----4--4--4--------2----2--2--2-----4----|
                                                                    .

Chorus

Both Guitars
e|-------------------------------------|
B|-------------------------------------|
G|--66666666---------------------------|
D|--44444444444444448888888866666666---| 
A|--44444444444444448888888866666666---|
E|----------222222226666666644444444---|

e|-------------------------------------|
B|-------------------------------------|
G|--66666666---------------------------|
D|--4444444444444444888888886----------|Let the last note ring. 
A|--4444444444444444888888886----------|
E|----------22222222666666664----------|


Break Down

Lead or Both

e|---------------|       e|----------------------------------|
B|---------------|       B|-------------6--------------------|  
G|---------------|       G|-----------------6----------------|
D|-----6--4--6---| x2    D|-----6--4--6------------6--4--6---|
A|---4---------4-|       A|---4------------------4---------4-|
E|---------------|       E|----------------------------------| 

e|---------------|       e|----------------------------------|
B|---------------|       B|-------------6--------------------|  
G|---------------|       G|-----------------6----------------|
D|-----6--4--6---| x2    D|-----6--4--6------------6--4--6---|
A|---4---------4-|       A|---4------------------4---------4-|
E|---------------|       E|----------------------------------| 


e|-------------------------------------------------|
B|----------6-----------------6-----------6--------| 
G|--------------------------------6--------------6-|    
D|-----6--4-----------6--4--6---------6--4--6------|
A|---4--------------4---------------4--------------|
E|-------------------------------------------------|


Chorus

Both Guitars
e|-------------------------------------|
B|-------------------------------------|
G|--66666666---------------------------|
D|--44444444444444448888888866666666---| 
A|--44444444444444448888888866666666---|
E|----------222222226666666644444444---|

e|-------------------------------------|
B|-------------------------------------|
G|--66666666---------------------------|
D|--44444444444444448888888866666666---| 
A|--44444444444444448888888866666666---|
E|----------222222226666666644444444---|

e|-------------------------------------|
B|-------------------------------------|
G|--66666666---------------------------|
D|--44444444444444448888888866666666---| 
A|--44444444444444448888888866666666---|
E|----------222222226666666644444444---|

e|-------------------------------------|
B|-------------------------------------|
G|--66666666-------------------------6-| Let the last note ring. 
D|--44444444444444448888888866666666-4-| 
A|--44444444444444448888888866666666-4-|
E|----------222222226666666644444444---|






Suggest correction
Give kudos to tab author, rate the tab!
1 2 3 4 5
comments
print report bad tab
guest
You may want to rate the tab now too:
select rating
Please do not post tabs as comments. Select "correction" instead!