Oops, an error
Loading. Please wait.

This Song Saved My Life Tab

version 2
version 2

Whole song

Interactive

5,141 views 3 this week
no commentswrite comment
1 2 3 4 5
please rate
add to favorites
launch autoscroll
font size
0
reset
how to read this tab
guitar tuner
Tab Pro tools
  • play this tab
  • loop segment
  • change instrument
  • show fretboard
  • metronome
×
Best way to learn
"This Song Saved My Life"
Autoscroll
slow
fast
+/-
esc
set tempo
stop
Contributor
Difficulty
novice
Artist : Simple Plan
Song   : This Song Saved My Life
Album  : Get Your Heart On!
Tabbed By Ketan (ketan.gupta50@yahoo.co.in)

Standard Tuning (eBGDAE)

INTRO
e|-------2------------3------------2------------0----------------------------|
B|---------3--------3---3--------3---3--------2---2--------------------------|
G|-----4-----4----0-------0----2-------2----2-------2------------------------|
D|---4-----------------------0------------2----------------------------------|
A|-2-------------------------------------------------------------------------|
E|--------------3------------------------------------------------------------|

VERSE
Guitar 1
e|-0-----0-----0-----0-------0-----0-----0-----0-----------------------------| ______
B|---3-----3-----3-----3-------3-----3-----3-----3---------------------------|       |
G|-----2-----2-----2------2------2-----2-----2------2------------------------|       |
D|---------------------------------------------------------------------------|       |
A|-5-------------------------------------------------------------------------|       |
E|---------------------------3-----------------------------------------------|       |
                                                                                     |
e|-------0------------0------0-----0-----3--2-----0--------------------------|       |
B|---3-----3------3-----3------3-----3---------3-----------------------------|       |
G|-----2-----2------2-----2------2-----2-------------------------------------|       |
D|---------------------------------------------------------------------------|       |
A|-2------------0------------------------------------------------------------|       |
E|---------------------------3-----------------------------------------------|       |
                                                                                     | x2
Guitar 2                                                                             |
e|---------------------------------------------------------------------------|       |
B|---------------------------------------------------------------------------|       | 
G|-7-------------------------------------------------------------------------|       |
D|-7-------------------------5-----------------------------------------------|       |
A|-5-------------------------5-----------------------------------------------|       |
E|---------------------------3-----------------------------------------------|       |
                                                                                     |
e|---------------------------------------------------------------------------|       |
B|---------------------------------------------------------------------------|       |
G|-4-------------------------------------------------------------------------|       |
D|-4------------7------------5-----------------------------------------------|       |
A|-2------------7------------5-----------------------------------------------|       |
E|--------------5------------3-----------------------------------------------| ______|
       
CHORUS
Guitar 2
e|---------------------------------------------------------------------------|
B|---------------------------------------------------------------------------|
G|-4-4-4-4-4-4-------------7-7-7-7-7-7---------------------------------------| x2
D|-4-4-4-4-4-4-5-5-5-5-5-5-7-7-7-7-7-7-7-7-7-7-7-7---------------------------|
A|-2-2-2-2-2-2-5-5-5-5-5-5-5-5-5-5-5-5-7-7-7-7-7-7---------------------------|
E|-------------3-3-3-3-3-3-------------5-5-5-5-5-5---------------------------|

e|---------------------------------------------------------------------------|
B|---------------------------------------------------------------------------|
G|-4-4-4-------------------7-7-7---------------------------------------------|
D|-4-4-4-------5-5-5-------7-7-7-------7-7-7-7--7-7--5-5-5-5-5--7-7-7-7-7----|
A|-2-2-2-------5-5-5-------5-5-5-------7-7-7-7--7-7--5-5-5-5-5--7-7-7-7-7----|
E|-------------3-3-3-------------------5-5-5-5--5-5--3-3-3-3-3--5-5-5-5-5----|

Guitar 2                                                                        _____
e|---------------------------------------------------------------------------|       |
B|---------------------------------------------------------------------------|       |
G|-7-------------------------------------------------------------------------|       |
D|-7-------------------------------------------------------------------------|       |
A|-5-------------------------------------------------------------------------|       |
E|---------------------------------------------------------------------------|       |
                                                                                     |
Guitar 1                                                                             | x1
e|-0-----0-----0-----0-------------------------------------------------------|       |
B|---3-----3-----3-----3-----------------------------------------------------|       |
G|-----2-----2-----2-----2---------------------------------------------------|       |
D|---------------------------------------------------------------------------|       |
A|-5-------------------------------------------------------------------------|       |
E|---------------------------------------------------------------------------|  _____|

CHORUS 2
e|---------------------------------------------------------------------------|
B|---------------------------------------------------------------------------|
G|-4-4-4-4-4-4-------------7-7-7-7-7-7---------------------------------------| x2
D|-4-4-4-4-4-4-5-5-5-5-5-5-7-7-7-7-7-7-7-7-7-7-7-7---------------------------|
A|-2-2-2-2-2-2-5-5-5-5-5-5-5-5-5-5-5-5-7-7-7-7-7-7---------------------------|
E|-------------3-3-3-3-3-3-------------5-5-5-5-5-5---------------------------|

e|---------------------------------------------------------------------------|
B|---------------------------------------------------------------------------|
G|-4-4-4-------------------7-7-7---------------------------------------------|
D|-4-4-4-------5-5-5-------7-7-7-------7-7-7-7--7-7--5-5-5-5-5--7-7-7-7-7----|
A|-2-2-2-------5-5-5-------5-5-5-------7-7-7-7--7-7--5-5-5-5-5--7-7-7-7-7----|
E|-------------3-3-3-------------------5-5-5-5--5-5--3-3-3-3-3--5-5-5-5-5----|

                    
e|---------------------------------------------------------------------------|
B|---------------------------------------------------------------------------|
G|---------------------------------------------------------------------------|
D|-9-9-9-9-9-9-9-9-----------------------------------------------------------|
A|-9-9-9-9-9-9-9-9-----------------------------------------------------------|
E|-7-7-7-7-7-7-7-7-----------------------------------------------------------|

INTERLUDE
   You'll never know...
e|-----------------------------------------------------------------------------|
B|-----------------------------------------------------------------------------|
G|-----7-7-7-7-7-7-7-7-----------------------7-7-7-7-7-7-7-7-------------------|
D|-2---7-7-7-7-7-7-7-7--7-7-7-7-7-7-7-7--2---7-7-7-7-7-7-7-7--7-7-7-7-7-7-7-7--|
A|-2---5-5-5-5-5-5-5-5--7-7-7-7-7-7-7-7--2---5-5-5-5-5-5-5-5--7-7-7-7-7-7-7-7--|
E|-0--------------------5-5-5-5-5-5-5-5--0--------------------5-5-5-5-5-5-5-5--|

e|---------------------------------------------------------------------------|
B|---------------------------------------------------------------------------|
G|---------------------------------------------------------------------------|
D|---------------------------------------------------------------------------|
A|-5-5-5-5-5-5-5-5-5-5-5-5-5-5-5-5-------------------------------------------|
E|-3-3-3-3-3-3-3-3-3-3-3-3-3-3-3-3-------------------------------------------|

OUTRO
My Life...
e|---------------------------------------------------------------------------|
B|---------------------------------------------------------------------------|
G|-7-7-7-7-7-7-7-7-7-7-7-7-7-7-7-7--6-6-6-6-6-6-6-6-6-6-6-6-6-6-6-6----------|
D|-7-7-7-7-7-7-7-7-7-7-7-7-7-7-7-7--7-7-7-7-7-7-7-7-7-7-7-7-7-7-7-7----------|
A|-5-5-5-5-5-5-5-5-5-5-5-5-5-5-5-5--4-4-4-4-4-4-4-4-4-4-4-4-4-4-4-4----------|
E|---------------------------------------------------------------------------|

e|---------------------------------------------------------------------------|
B|---------------------------------------------------------------------------|
G|-4-4-4-4-4-4-4-4-4-4-4-4-4-4-4-4-------------------------------------------|
D|-4-4-4-4-4-4-4-4-4-4-4-4-4-4-4-4--5-5-5-5-5-5-5-5-7-7-7-7-7-7-7-7----------|
A|-2-2-2-2-2-2-2-2-2-2-2-2-2-2-2-2--5-5-5-5-5-5-5-5-7-7-7-7-7-7-7-7----------|
E|----------------------------------3-3-3-3-3-3-3-3-5-5-5-5-5-5-5-5----------|

e|---------------------------------------------------------------------------|
B|---------------------------------------------------------------------------|
G|-7-7-7-7-7-7-7-7-7-7-7-7-7-7-7-7--6-6-6-6-6-6-6-6-6-6-6-6-6-6-6-6----------|
D|-7-7-7-7-7-7-7-7-7-7-7-7-7-7-7-7--7-7-7-7-7-7-7-7-7-7-7-7-7-7-7-7----------|
A|-5-5-5-5-5-5-5-5-5-5-5-5-5-5-5-5--4-4-4-4-4-4-4-4-4-4-4-4-4-4-4-4----------|
E|---------------------------------------------------------------------------|

e|---------------------------------------------------------------------------|
B|---------------------------------------------------------------------------|
G|-4-4-4-4-4-4-4-4-4-4-4-4-4-4-4-4-------------------------------------------|
D|-4-4-4-4-4-4-4-4-4-4-4-4-4-4-4-4--5----------------------------------------|
A|-2-2-2-2-2-2-2-2-2-2-2-2-2-2-2-2--5----------------------------------------|
E|----------------------------------3----------------------------------------|

ORDER

Intro 
Verse
Chorus
Verse
Chorus 2
Interlude
Chorus (clean)
Outro
comments
We did not receive enough feedback on this tab! Please rate:
print report bad tab
1 2 3 4 5
I want to post or [tab]
guest
You may want to rate the tab now too:
select rating
Please do not post tabs as comments. Select "correction" instead!