Oops, an error
Loading. Please wait.

Time To Say Goodbye Tab

version 1
version 1

Whole song

Interactive

20,052 views 3 this week
1 commentread comment
1 2 3 4 5
excellent!
x 14
add to favorites
launch autoscroll
font size
0
reset
how to read this tab
guitar tuner
Autoscroll
slow
fast
+/-
esc
set tempo
stop
Help us to improve Ultimate-Guitar.com Take our survey!
×
Contributor
Difficulty
Tuning
novice
D# G# C# F# A# D#
                        
                         <<< Time To Say Goodbye >>>
                             <<< Simple Plan >>>
                             <<< Simple Plan >>>


---->>> IMPORTANT!!!!! tune down 1/2 step

INTRO:

Guitar 1:                              Guitar 2:  

d#|----------------------------|       d#|---------------------------|
A#|----------------------------|       A#|---------------------------|
F#|-7--7-7-7-7-7--7--7-7-7-7-7-| x10   F#|--7------------------------|  X2
C#|----------------------------|       C#|--7-----7--7--9--9-----5---|
G#|----------------------------|       G#|--5-----7--7--9--9-----5---|
D#|----------------------------|       D#|--------5--5--7--7-----3---|

-it's time to say goodbye!

Guitar 1:

d#|---------------------------------------------------------------|
A#|---------------------------------------------------------------|
F#|-7-7-6-6-7-7-6-6-7-7-6-6--9--7---7-7-6-6-7-7-6-6-7-7-6-6-------|
C#|----------------------------------------------------------9--7-|
G#|---------------------------------------------------------------|
D#|---------------------------------------------------------------|

d#|---------------------------------------------------------|
A#|---------------------------------------------------------|
F#|-7-7-6-6-7-7-6-6-7-7-6-6--9--7---9--9-9-9-9-9-9-9--7~~~--|
C#|---------------------------------------------------------|
G#|---------------------------------------------------------|
D#|---------------------------------------------------------|

Guitar 2:

d#|------------------------------------|
A#|------------------------------------|
F#|-7----------------------------------|
C#|-7---------5-----------9----------7-|
G#|-5---------5-----------9----------7-|
D#|-----------3-----------7----------5-|

VERSE 1:

both guitars:

d#|----------------------------------------------------|
A#|----------------------------------------------------|
F#|-----7-----7----------------------------------------| X3
C#|-7-7-7-7-7-7------5-----5------9-----9------7-----7-|
G#|-5-5-5-5-5-5--5-5-5-5-5-5--9-9-9-9-9-9--7-7-7-7-7-7-|
D#|--------------3-3-3-3-3-3--7-7-7-7-7-7--5-5-5-5-5-5-|
    P.M   ...    ...   ...    ...   ...    ...   ...

d#|--------------------------------------------|
A#|--------------------------------------------|
F#|-----7-----7--------------------------------|
C#|-7-7-7-7-7-7------5-----5-7-7-7-7-7-7-7-7-7-|
G#|-5-5-5-5-5-5--5-5-5-5-5-5-7-7-7-7-7-7-7-7-7-|
D#|--------------3-3-3-3-3-3-5-5-5-5-5-5-5-5-5-|
    ...   ...    ...   ...  

CHORUS:

Both Guitars:

d#|-------------------------------------------------|
A#|-------------------------------------------------|
F#|-----------------7-7-7-7-7-7-7-7-----------------| X4
C#|-5-5-5-5-5-5-5-5-7-7-7-7-7-7-7-7-7-7-7-7-7-7-7-7-|
G#|-5-5-5-5-5-5-5-5-5-5-5-5-5-5-5-5-7-7-7-7-7-7-7-7-|
D#|-3-3-3-3-3-3-3-3-----------------5-5-5-5-5-5-5-5-|



-it's time to say goodbye!

Guitar 1:

d#|---------------------------------------------------------------|
A#|---------------------------------------------------------------|
F#|-7-7-6-6-7-7-6-6-7-7-6-6--9--7---7-7-6-6-7-7-6-6-7-7-6-6-------|
C#|----------------------------------------------------------9--7-|
G#|---------------------------------------------------------------|
D#|---------------------------------------------------------------|

d#|---------------------------------------------------------|
A#|---------------------------------------------------------|
F#|-7-7-6-6-7-7-6-6-7-7-6-6--9--7---9--9-9-9-9-9-9-9--7~~~--|
C#|---------------------------------------------------------|
G#|---------------------------------------------------------|
D#|---------------------------------------------------------|

Guitar 2:

d#|------------------------------------|
A#|------------------------------------|
F#|-7----------------------------------|
C#|-7---------5-----------9----------7-|
G#|-5---------5-----------9----------7-|
D#|-----------3-----------7----------5-|


VERSE 2:

Guitar 1:

d#|-------------------------------10--10-10--|
A#|-------------------------------10--10-10--|
F#|----------7--9--11--9--7~~~-----7---7--7--|
C#|------------------------------------------|
G#|------------------------------------------|
D#|------------------------------------------|

Both Guitars:

d#|----------------------------------------------------|
A#|----------------------------------------------------|
F#|-----7-----7----------------------------------------| 
C#|-7-7-7-7-7-7------5-----5------9-----9------7-----7-|
G#|-5-5-5-5-5-5--5-5-5-5-5-5--9-9-9-9-9-9--7-7-7-7-7-7-|
D#|--------------3-3-3-3-3-3--7-7-7-7-7-7--5-5-5-5-5-5-|
    P.M   ...    ...   ...    ...   ...    ...   ...

d#|--------------------------------------------|
A#|--------------------------------------------|
F#|-----7-----7--------------------------------|
C#|-7-7-7-7-7-7------5-----5-7-7-7-7-7-7-7-7-7-|
G#|-5-5-5-5-5-5--5-5-5-5-5-5-7-7-7-7-7-7-7-7-7-|
D#|--------------3-3-3-3-3-3-5-5-5-5-5-5-5-5-5-|
    ...   ...    ...   ...  

[CHORUS]


BRIDGE:

Guitar 1:                       

d#|-----------------------------| |-----------------------------|
A#|-----------------------------| |-----------------------------|
F#|-7--7-7-7-7-7--7--7-7-7-7-7--| |-9-9-9-9-11-11-9-9-9-9-7-7-7-|
C#|-----------------------------| |-x-x-x-x--x--x-x-x-x-x-x-x-x-|
G#|-----------------------------| |-7-7-7-7--9--9-7-7-7-7-5-5-5-|
D#|-----------------------------| |-----------------------------|

Guitar 2:

d#|----------------------------------------------------------|
A#|----------------------------------------------------------|
F#|-------------------7--7\----------------------------------|
C#|-9--9\----5--5\----7--7\--7-7-7-7-8-8-8-8--9--9-9-9-9-9-9-|
G#|-9--9\----5--5\----5--5\--7-7-7-7-8-8-8-8--9--9-9-9-9-9-9-|
D#|-7--7\----3--3\-----------5-5-5-5-6-6-6-6--7--7-7-7-7-7-7-|

d#|-------------------------------------------------|
A#|-------------------------------------------------|
F#|-----------------7-7-7-7-7-7-7-7-----------------|
C#|-5-5-5-5-5-5-5-5-7-7-7-7-7-7-7-7-7-7-7-7-7-7-7-7-|
G#|-5-5-5-5-5-5-5-5-5-5-5-5-5-5-5-5-7-7-7-7-7-7-7-7-|
D#|-3-3-3-3-3-3-3-3-----------------5-5-5-5-5-5-5-5-|


END:

Guitar 2: (clean)

d#|-2--2--2-2--3-3--3--3-3-0--0--0-0--0-0--0--0-|
A#|-3--3--3-3--3-3--3--3-3-0--0--0-0--2-2--2--2-|
F#|-2--2--2-2--0-0--0--0-0-1--1--1-1--2-2--2--2-| x3
C#|-0--0--0-0--0-0--0--0-0-2--2--2-2--2-2--2--2-|
G#|------------2-2--2--2-2-2--2--2-2--0-0--0--0-|
D#|------------3-3--3--3-3-0--0--0-0--0-0--0--0-|

d#|-2--2--2-2--3-3--3--2~~~~--|
A#|-3--3--3-3--3-3--3--3~~~~--|
F#|-2--2--2-2--0-0--0--2~~~~--|
C#|-0--0--0-0--0-0--0--0~~~~--|
G#|------------2-2--2---------|
D#|------------3-3--3---------|


that's the whole song, i hope u like it and rate this tab please...
comments
print report bad tab
1 comment total.
+1 reply
luiscortes 869 wrote on July 17 2008, 11:59 am

in the end it's not E, it's B: d#|-----------|
A#|-----------|
F#|-4--4--4-4-|
C#|-4--4--4-4-|
G#|-2--2--2-2-|
D#|-----------|

I want to post or [tab]
guest
You may want to rate the tab now too:
select rating
Please do not post tabs as comments. Select "correction" instead!