Oops, an error
Loading. Please wait.
We have an official Untitled tab made by UG professional guitarists. Check out the tab »
×
14,730 views 6 this week
7 commentsread comments
1 2 3 4 5
x 9
add to favorites
×
Save as Personal and add changes to this tab that will be seen only by you. Learn more ›
×
You can save this tab as Personal to edit and correct it or add notes. All changes will be seen only by you. Learn more »
save as personal
new!
launch autoscroll
font size
0
reset
how to read this tab
guitar tuner
Autoscroll
slow
fast
+/-
esc
set tempo
stop
Author
Song: Untitled Solo
Artist: Simple Plan
Album: Still Not Getting Any...
Tuning: Half step down
Tabbed By: GuitarAmp58

h=Hammer
p=Pull off
b=Bend
/=Slide up
\=Slide down
~=Let it ring
v=Pinch Harmonic
x=Dead note
.=Palm mute
<>=Natural Harmonic

This is my first tab, so if anything is wrong please post corrections.

Play it with heavy distortion
eb|---------------------------------------------------------------|
Bb|---------------------------11b-9h11p9~-12h14p12----------------|
Gb|-----------------------7-9---------------------12~-------------|
Db|----3h5/7-5-3-5~-3h5/7----------------------------12-12/14\12--|
Ab|-3~--------------------------------------------------12/14\12--|
Eb|---------------------------------------------------------------|

You could play it this way if it is easier
eb|--------------------------------------7h9p7--------------------|
Bb|--------------------------11b-9h11p9~-------7~-----------------|
Gb|---0h2h4-2-0-2~-0h2h4-7-9---------------------7-7/9\7----------|
Db|-0~---------------------------------------------7/9\7----------|
Ab|---------------------------------------------------------------|
Eb|---------------------------------------------------------------|
Suggest correction
comments
print report bad tab
7 comments total. Showing first comments.
0 reply
catalyst81 30 Apr 18, 2005 08:00 PM

Pretty good. This sounds a little closer to me. Just made a few corrections. Let me know what you think.

eb|------------------------------------------------------------------|
Bb|----------------------------11b-8h10p8~-12h13p12----------------|
Gb|------------------------7-9----------------------12~-------------|
Db|----5h7/9-7-5-7~-7h9-9-----------------------------12-12/14\12--|
Ab|-3~----------------------------------------------------12/14\12---|
Eb|------------------------------------------------------------------|

0 reply
ice_wiz 21 Aug 21, 2005 08:00 PM

simple plan still not getting any? there getting tons of ***ing sex

0 reply
ice_wiz 21 Aug 21, 2005 08:00 PM

***

guest
You may want to rate the tab now too:
select rating
Wanna post a correction for this tab? Suggest correction