Oops, an error
Loading. Please wait.
We have an official Untitled tab made by UG professional guitarists. Check out the tab »
×
795 views 33 this week
no commentswrite comment
1 2 3 4 5
3 more votes to show rating
add to favorites
×
Save as Personal and add changes to this tab that will be seen only by you. Learn more ›
×
You can save this tab as Personal to edit and correct it or add notes. All changes will be seen only by you. Learn more »
launch autoscroll
font size
0
reset
how to read this tab
guitar tuner
edit
Autoscroll
slow
fast
+/-
esc
set tempo
stop
Author
Difficulty
Hi guys, I already brows the tabs and chords of this song here in ultimate guitar. And I 
findout that There is
other way to play this song more simple So I decided, (even I don't have much time for 
this) to make a tabs and
 chords of this song comes from the original in piano version. Hope you guys like it and 
satisfied with my
 chords and tabs.

Song: Untitled (also known as how could this happen to me)
Band: Simple Plan

Tuning: Standard (Because some of you don't have a Capo thingy) and its more easy to 
play without any swords of
 gadget, tools or something.

Intro:

|-----------------------------------------|
|-------------------9-------11------------|
|----------11-----------------------------| This is F# (play this 4x)
|------11------11------11-------11--------|
|--9--------------------------------------|
|-----------------------------------------|

Other chords
|-----------------------------------------|
|-------------------6--------6------------|
|----------8------------------------------| This is D#m (play this 2x)
|------8-------8--------8--------8--------|
|---6-------------------------------------|
|-----------------------------------------|


|-----------------------------|
|-----------------4------4----|
|-----------6-----------------| C#
|--------6-----6-----6------6-|
|-----4-----------------------|
|-----------------------------|

|-----------------------------|
|-----------------2-------2---|
|-----------4-----------------| B#
|--------4-----4------4------4|
|-----2-----------------------|
|-----------------------------|

D#m
I open my eyes
                                        F#
I try to see but I'm blinded by the white light
           D#
I can't remember how

I can't remember why
    F#                C#
I'm lying here tonight

B#                     C#
And I can't stand the pain
      D#m           F#
And I can't make it go away
B#                     C#
No, I can't stand the pain


Chorus:

                           F#
How could this happen to me?
              D#m
I made my mistakes
                B#
Got nowhere to run
               C#
The night goes on
               F#
As I'm fading away
                  D#m
I'm sick of this life
               B#
I just wanna scream
C#
How could this happen to me?

(Just Repeat all the Chords,)

D#m
Everybody's screaming
                                 F#
I try to make a sound but no one hears me
     D#m
I'm slipping off the edge
     F#
I'm hanging by a thread
   D#m                  C#
I wanna start this over again
   B         C#          D#m       F#
So I try to hold onto a time when nothing mattered
   B         C#
And I can't explain what happened
     D#m     F#                  B
And I can't erase the things that I've done
C#m
No, I can't

Chorus:

                           F#
How could this happen to me?
              D#m
I made my mistakes
                B#
Got nowhere to run
               C#
The night goes on
               F#
As I'm fading away
                  D#m
I'm sick of this life
               B#
I just wanna scream
C#
How could this happen to me?

:F# C#m B C#

              D#m
I made my mistakes
                B#
Got nowhere to run
               C#
The night goes on
               F#
As I'm fading away
                  D#m
I'm sick of this life
               B#
I just wanna scream
C#
How could this happen to me?


Hope you guys like it :) credit for lyrics Comes from http://www.azlyrics.com/lyrics/simpleplan/untitled.html

Please like my page :D lol https://www.facebook.com/AcousticsofPrincem?ref=hl

            
            
Suggest correction
Creating personal tab
Creating personal tab
You can edit any tab online and save it as your Personal.

You can edit, replace or remove any tab part or add personal notes – all changes will be seen only by you.

Personal tabs can be accessed anytime from any device, even offline.
Learn more »
Give kudos to tab author, rate the tab!
1 2 3 4 5
comments
print report bad tab
guest
You may want to rate the tab now too:
select rating
Wanna post a correction for this tab? Suggest correction