Oops, an error
Loading. Please wait.
We have an official Welcome To My Life tab made by UG professional guitarists. Check out the tab »
×
17,388 views 9 this week
2 commentsread comments
1 2 3 4 5
x 4
add to favorites
×
Save as Personal and add changes to this tab that will be seen only by you. Learn more ›
×
You can save this tab as Personal to edit and correct it or add notes. All changes will be seen only by you. Learn more »
launch autoscroll
font size
0
reset
how to read this tab
guitar tuner
edit
Autoscroll
slow
fast
+/-
esc
set tempo
stop
Author
Difficulty
Okay... First of all, this is the first song i ever tabbed... It probably sucks but oh
i dont give... it sounds right to me.. so yeah.. Listen to the song for the timing.. i
do it but i dunno how. so bare with me. When theres 6 of the same tabs.. i find it 
strumming like this.... down down down up down down... contact me on..
pretty_princess537@hotmail.com

The Tuning is 1/2 step down..... so... Eb Ab Db Gb Bb Eb..

~ Let it ring..


Verse 1...

Eb|----------------------------------------------------|
Bb|----------------------------------------------------|
Gb|-7-7-7-7-7-7--4-4-4-4-4-4---------------------------|
Db|-7-7-7-7-7-7--4-4-4-4-4-4--5-5-5-5-5-5--7-7-7-7-7-7-| x2
Ab|-5-5-5-5-5-5--2-2-2-2-2-2--5-5-5-5-5-5--7-7-7-7-7-7-|
Eb|---------------------------3-3-3-3-3-3--5-5-5-5-5-5-|

No you dont know what its like......

Eb|------------------------------------------|
Bb|------------------------------------------|
Gb|--------------4-4-4-4-4-4-----------------|
Db|-5-5-5-5-5-5--4-4-4-4-4-4--5-5-5-5-5-5--7~|
Ab|-5-5-5-5-5-5--2-2-2-2-2-2--5-5-5-5-5-5--7~|
Eb|-3-3-3-3-3-3---------------3-3-3-3-3-3--5~|

Chorus... To be hurt...
To be kicked..
To be on the edge..
Eb|--------------------|
Bb|--------------------|
Gb|-4-4-------7-7------|
Db|-4-4--5-5--7-7--7-7-|x3
Ab|-2-2--5-5--5-5--7-7-|
Eb|------3-3-------5-5-|

No you don't know what its like...

Eb|-------------------|
Bb|-------------------|
Gb|-------------------|
Db|-2-2-2-2-2-2-2-4-5-|
Ab|-2-2-2-2-2-2-2-4-5-|
Eb|-0-0-0-0-0-0-0-2-3-|

Nothing plays when he sings "Welcome to my life"

Eb|-------------|
Bb|-------------|
Gb|-7-7-7-7-7-7-|
Db|-7-7-7-7-7-7-|
Ab|-5-5-5-5-5-5-|
Eb|-------------|

Verse 2...

Eb|----------------------------------------------------|
Bb|----------------------------------------------------|
Gb|-7-7-7-7-7-7--4-4-4-4-4-4---------------------------|
Db|-7-7-7-7-7-7--4-4-4-4-4-4--5-5-5-5-5-5--7-7-7-7-7-7-| x2
Ab|-5-5-5-5-5-5--2-2-2-2-2-2--5-5-5-5-5-5--7-7-7-7-7-7-|
Eb|---------------------------3-3-3-3-3-3--5-5-5-5-5-5-|

No you dont know what its like......

Eb|------------------------------------------------------|
Bb|------------------------------------------------------|
Gb|--------------4-4-4-4-4-4-----------------------------|
Db|-5-5-5-5-5-5--4-4-4-4-4-4--5-5-5-5-5-5--7-7-7-7-7-7-7-|
Ab|-5-5-5-5-5-5--2-2-2-2-2-2--5-5-5-5-5-5--7-7-7-7-7-7-7-|
Eb|-3-3-3-3-3-3---------------3-3-3-3-3-3--5-5-5-5-5-5-5-|

Chorus...

Eb|--------------------|
Bb|--------------------|
Gb|-4-4-------7-7------|
Db|-4-4--5-5--7-7--7-7-|x3
Ab|-2-2--5-5--5-5--7-7-|
Eb|------3-3-------5-5-|

No you don't know what its like...

Eb|-------------------|
Bb|-------------------|
Gb|-------------------|
Db|-2-2-2-2-2-2-2-4-5-|
Ab|-2-2-2-2-2-2-2-4-5-|
Eb|-0-0-0-0-0-0-0-2-3-|

Nothing plays when he sings "Welcome to my life"

Eb|-------------|
Bb|-------------|
Gb|-7-7-7-7-7-7-|
Db|-7-7-7-7-7-7-|
Ab|-5-5-5-5-5-5-|
Eb|-------------|

When david.. the bassist does his slide going to the bridge, near the end of that
It should be clear on the song when to play it..

Eb|---|
Bb|---|
Gb|---|
Db|-7-|
Ab|-7-|
Eb|-5-|

Bridge... No one ever lied...

Eb|----------------------------------------------|
Bb|----------------------------------------------|
Gb|-----------7-4-4--4-4--7-----------7-7-7------|
Db|-5-5--5-5--7-4-4--4-4--7-5-5--5-5--7-7-7--7-7-|
Ab|-5-5--5-5--5-2-2--2-2--5-5-5--5-5--5-5-5--7-7-|
Eb|-3-3--3-3----------------3-3--3-3---------5-5-|

Eb|---------------------------------------------------------|
Bb|---------------------------------------------------------|
Gb|-----------7-4-4--4-4--7---------------------------------|
Db|-5-5--5-5--7-4-4--4-4--7-2-2-2-2-2-2-2-4-5-5-5-5-5-5-5-5-|
Ab|-5-5--5-5--5-2-2--2-2--5-2-2-2-2-2-2-2-4-5-5-5-5-5-5-5-5-|
Eb|-3-3--3-3----------------0-0-0-0-0-0-0-2-3-3-3-3-3-3-3-3-|


Chorus...

To be hurt...

Eb|------------|
Bb|------------|
Gb|-4-----7----|
Db|-2--5--7--7-|x2
Ab|-2--5--5--7-|
Eb|----3-----5-|

To be on the edge...
Eb|--------------------|
Bb|--------------------|
Gb|-4-4-------7-7------|
Db|-4-4--5-5--7-7--7-7-|
Ab|-2-2--5-5--5-5--7-7-|
Eb|------3-3-------5-5-|


No you don't know what its like...

Eb|---------------------------------|
Bb|---------------------------------|
Gb|---------------------------------|
Db|-2-2-2-2-2-2-2-4-5-5-5-5-5-5-5-5-|
Ab|-2-2-2-2-2-2-2-4-5-5-5-5-5-5-5-5-|
Eb|-0-0-0-0-0-0-0-2-3-3-3-3-3-3-3-3-|

To be hurt...
To be kicked...
To be on the edge...

Eb|--------------------|
Bb|--------------------|
Gb|-4-4-------7-7------|
Db|-4-4--5-5--7-7--7-7-|x3
Ab|-2-2--5-5--5-5--7-7-|
Eb|------3-3-------5-5-|

No you dont know what its like..

Eb|-------------------|
Bb|-------------------|
Gb|-------------------|
Db|-2-2-2-2-2-2-2-4-5-|
Ab|-2-2-2-2-2-2-2-4-5-|
Eb|-0-0-0-0-0-0-0-2-3-|

Nothing plays when he sings "welcome to my.."
then when he says life...

Eb|----------------------------------------------------|
Bb|----------------------------------------------------|
Gb|-7-7-7-7-7-7--4-4-4-4-4-4---------------------------|
Db|-7-7-7-7-7-7--4-4-4-4-4-4--5-5-5-5-5-5--7-7-7-7-7-7-|
Ab|-5-5-5-5-5-5--2-2-2-2-2-2--5-5-5-5-5-5--7-7-7-7-7-7-|
Eb|---------------------------3-3-3-3-3-3--5-5-5-5-5-5-|

End on....

Eb|---|
Bb|---|
Gb|-7-|
Db|-7-|
Ab|-5-|
Eb|---|

Hope you enjoyed it.... please rate and email me for advice or feedback or feed
my email address is up there..

            
            
Suggest correction
Creating personal tab
Creating personal tab
You can edit any tab online and save it as your Personal.

You can edit, replace or remove any tab part or add personal notes – all changes will be seen only by you.

Personal tabs can be accessed anytime from any device, even offline.
Learn more »
comments
print report bad tab
2 comments total.
+2 reply
Claymore65 709 May 17, 2008 02:13 AM

It's ok but the main thing is you should use full bar chords

|-0-| |---| |-2-| |---|
|-3-| |---| |-3-| |---|
|-2-| |-7-| |-4-| |-4-|
|-0-| instead of |-7-| |-4-| instead of |-4-|
|-0-| |-5-| |-2-| |-2-|
|---| |---| |-2-| |---|

|-3-| |---| |---| |---|
|-3-| |---| |-0-| |---|
|-0-| |---| |-2-| |---|
|-0-| instead of |-5-| |-2-| instead of |-7-|
|-2-| |-5-| |-0-| |-7-|
|-3-| |-3-| |---| |-5-|

The chords you have aren't wrong, but these just give a better sound. I think some of the orders may be a bit off, but that's just me. :)

0 reply
Claymore65 709 May 17, 2008 02:14 AM

Damn stupid comment thing! Hope you can read those lol.

guest
You may want to rate the tab now too:
select rating
Wanna post a correction for this tab? Suggest correction