Oops, an error
Loading. Please wait.

When Im Gone tab

version 3
version 3

Whole song

Interactive

3,862 views 1 this week
no commentswrite comment
1 2 3 4 5
2 more votes to show rating
add to favorites
×
Save as Personal and add changes to this tab that will be seen only by you. Learn more ›
×
You can save this tab as Personal to edit and correct it or add notes. All changes will be seen only by you. Learn more »
launch autoscroll
font size
0
reset
how to read this tab
guitar tuner
edit
Autoscroll
slow
fast
+/-
esc
set tempo
stop
---------------------------
When I'm Gone ~ Simple Plan
---------------------------
Album:  Simple Plan  (2008)


Tabbed By: RussCool
(I know, pretty lame name)


Tempo: Early 80s

Tuning: All Simple Plan Songs Are In A Half Step Down




INTRO

  Guitar 1   (This is the techno intro)
Eb|----11--7--4--7-----|----12--7--4--2-----|
Bb|-----9--9--4--9-----|-----9--9--5--2-----|
Gb|-----8--8--4--8-----|-----9--9--4--1-----|
Db|--------------------|--------------------|
Ab|--------------------|--------------------|
Eb|--------------------|--------------------|



VERSE 1

Guitar 1   (Staccatos)
Eb|------------------|------------------|------------------|------------------|
Bb|------------------|------------------|------------------|------------------|
Gb|------------------|---9--9--9--9-----|------------------|---6--6--6--6-----|
Db|---6--6--6--6-----|---9--9--9--9-----|---9--9--9--9-----|---6--6--6--6-----|
Ab|---6--6--6--6-----|---7--7--7--7-----|---9--9--9--9-----|---4--4--4--4-----|
Eb|---4--4--4--4-----|------------------|---7--7--7--7-----|------------------|

Guitar 2   (Staccatos)
Eb|------------------|------------------|------------------|------------------|
Bb|------------------|------------------|------------------|------------------|
Gb|------------------|---9--9--9--9-----|------------------|---6--6--6--6-----|
Db|---6--6--6--6-----|---9--9--9--9-----|---9--9--9--9-----|---6--6--6--6-----|
Ab|---6--6--6--6-----|---7--7--7--7-----|---9--9--9--9-----|---4--4--4--4-----|
Eb|---4--4--4--4-----|------------------|---7--7--7--7-----|------------------|

Guitar 1   (Staccatos)
Eb|------------------|------------------|------------------|--------------------|
Bb|------------------|------------------|------------------|--------------------|
Gb|------------------|---9--9--9--9-----|------------------|---6--6--6-6-6-6----|
Db|---6--6--6--6-----|---9--9--9--9-----|---9--9--9--9-----|---6--6--6-6-6-6----|
Ab|---6--6--6--6-----|---7--7--7--7-----|---9--9--9--9-----|---4--4--4-4-4-4----|
Eb|---4--4--4--4-----|------------------|---7--7--7--7-----|--------------------|

Guitar 2   (Staccatos)
Eb|----------------------|------------------|------------------|--------------------|
Bb|----------------------|------------------|------------------|--------------------|
Gb|----------------------|---9--9--9--9-----|------------------|---6--6--6-6-6-6----|
Db|-------6-------6------|---9--9--9--9-----|---9--9--9--9-----|---6--6--6-6-6-6----|
Ab|-----6---6---6---6----|---7--7--7--7-----|---9--9--9--9-----|---4--4--4-4-4-4----|
Eb|---4-------4----------|------------------|---7--7--7--7-----|--------------------|



CHORUS 1:

Guitar 1   (No Staccatos)
Eb|----------------------|----------------------|----------------------|----------------------|
Bb|----------------------|----------------------|----------------------|----------------------|
Gb|---9-9-9-9------------|----------------------|---9-9-9-9------------|----------------------|
Db|---9-9-9-9-9-9-9-9----|---6-6-6-6-4-4-4-4----|---9-9-9-9-9-9-9-9----|---6-6-6-6-4-4-4-4----|
Ab|---7-7-7-7-9-9-9-9----|---6-6-6-6-4-4-4-4----|---7-7-7-7-9-9-9-9----|---6-6-6-6-4-4-4-4----|
Eb|-----------7-7-7-7----|---4-4-4-4-2-2-2-2----|-----------7-7-7-7----|---4-4-4-4-2-2-2-2----|

Guitar 2   (No Staccatos)
Eb|----------------------|----------------------|----------------------|----------------------|
Bb|----------------------|----------------------|----------------------|----------------------|
Gb|---9-9-9-9------------|----------------------|---9-9-9-9------------|----------------------|
Db|---9-9-9-9-9-9-9-9----|---6-6-6-6-4-4-4-4----|---9-9-9-9-9-9-9-9----|---6-6-6-6-4-4-4-4----|
Ab|---7-7-7-7-9-9-9-9----|---6-6-6-6-4-4-4-4----|---7-7-7-7-9-9-9-9----|---6-6-6-6-4-4-4-4----|
Eb|-----------7-7-7-7----|---4-4-4-4-2-2-2-2----|-----------7-7-7-7----|---4-4-4-4-2-2-2-2----|

Guitar 1   (No Staccatos)
Eb|----------------------|----------------------|----------------------|----------------------|
Bb|----------------------|----------------------|----------------------|----------------------|
Gb|---9-9-9-9------------|----------------------|---9-9-9-9-9-9-9-9----|---6-6-6-6-8-8-8-8----|
Db|---9-9-9-9-9-9-9-9----|---6-6-6-6-4-4-4-4----|---9-9-9-9-9-9-9-9----|---6-6-6-6-8-8-8-8----|
Ab|---7-7-7-7-9-9-9-9----|---6-6-6-6-4-4-4-4----|---7-7-7-7-7-7-7-7----|---4-4-4-4-6-6-6-6----|
Eb|-----------7-7-7-7----|---4-4-4-4-2-2-2-2----|----------------------|----------------------|

Guitar 2 (No Staccatos)
Eb|----------------------|----------------------|----------------------|----------------------|
Bb|----------------------|----------------------|----------------------|----------------------|
Gb|---9-9-9-9------------|----------------------|---9-9-9-9-9-9-9-9----|---6-6-6-6-8-8-8-8----|
Db|---9-9-9-9-9-9-9-9----|---6-6-6-6-4-4-4-4----|---9-9-9-9-9-9-9-9----|---6-6-6-6-8-8-8-8----|
Ab|---7-7-7-7-9-9-9-9----|---6-6-6-6-4-4-4-4----|---7-7-7-7-7-7-7-7----|---4-4-4-4-6-6-6-6----|
Eb|-----------7-7-7-7----|---4-4-4-4-2-2-2-2----|----------------------|----------------------|



POST-CHORUS 1

Guitar 1   (No Staccatos)
Eb|--------------------|---------------------|--------------------|---------------------|
Bb|--------------------|---------------------|--------------------|---------------------|
Gb|----------9-9-------|---6-6----8-8-8-8----|----------9-9-------|---6-6----8-8-8-8----|
Db|---6-6----9-9-------|---6-6----8-8-8-8----|---6-6----9-9-------|---6-6----8-8-8-8----|
Ab|---6-6----7-7-------|---4-4----6-6-6-6----|---6-6----7-7-------|---4-4----6-6-6-6----|
Eb|---4-4--------------|---------------------|---4-4--------------|---------------------|

Guitar 2   (No Staccatos)
Eb|----------------------|----------------------|----------------------|----------------------|
Bb|----------------------|----------------------|----------------------|----------------------|
Gb|-----------9-9-X-X----|---6-6-X-X-8-8-8-8----|-----------9-9-X-X----|---6-6-X-X-8-8-8-8----|
Db|---6-6-X-X-7-7-X-X----|---6-6-X-X-8-8-8-8----|---6-6-X-X-7-7-X-X----|---6-6-X-X-8-8-8-8----|
Ab|---6-6-X-X-7-7-X-X----|---4-4-X-X-6-6-6-6----|---6-6-X-X-7-7-X-X----|---4-4-X-X-6-6-6-6----|
Eb|---4-4-X-X------------|----------------------|---4-4-X-X------------|----------------------|



VERSE 2

Guitar 1   (Staccatos)
Eb|------------------|------------------|------------------|------------------|
Bb|------------------|------------------|------------------|------------------|
Gb|------------------|---9--9--9--9-----|------------------|---6--6--6--6-----|
Db|---6--6--6--6-----|---9--9--9--9-----|---9--9--9--9-----|---6--6--6--6-----|
Ab|---6--6--6--6-----|---7--7--7--7-----|---9--9--9--9-----|---4--4--4--4-----|
Eb|---4--4--4--4-----|------------------|---7--7--7--7-----|------------------|

Guitar 2   (Staccatos)
Eb|------------------|------------------|------------------|------------------|
Bb|------------------|------------------|------------------|------------------|
Gb|------------------|---9--9--9--9-----|------------------|---6--6--6--6-----|
Db|---6--6--6--6-----|---9--9--9--9-----|---9--9--9--9-----|---6--6--6--6-----|
Ab|---6--6--6--6-----|---7--7--7--7-----|---9--9--9--9-----|---4--4--4--4-----|
Eb|---4--4--4--4-----|------------------|---7--7--7--7-----|------------------|

Guitar 1   (Staccatos)
Eb|------------------|------------------|------------------|--------------------|
Bb|------------------|------------------|------------------|--------------------|
Gb|------------------|---9--9--9--9-----|------------------|---6--6--6-6-6-6----|
Db|---6--6--6--6-----|---9--9--9--9-----|---9--9--9--9-----|---6--6--6-6-6-6----|
Ab|---6--6--6--6-----|---7--7--7--7-----|---9--9--9--9-----|---4--4--4-4-4-4----|
Eb|---4--4--4--4-----|------------------|---7--7--7--7-----|--------------------|

Guitar 2   (Staccatos)
Eb|----------------------|----------------------|----------------------|--------------------|
Bb|----------------------|----------------------|----------------------|--------------------|
Gb|----------------------|-------9-------9------|----------------------|---6--6--6-6-6-6----|
Db|-------6-------6------|-----9---9---9---9----|-------9-------9------|---6--6--6-6-6-6----|
Ab|-----6---6---6---6----|---7-------7----------|-----9---9---9---9----|---4--4--4-4-4-4----|
Eb|---4-------4----------|----------------------|---7-------7----------|--------------------|



CHORUS 2

Guitar 1   (No Staccatos)
Eb|----------------------|----------------------|----------------------|----------------------|
Bb|----------------------|----------------------|----------------------|----------------------|
Gb|---9-9-9-9------------|----------------------|---9-9-9-9------------|----------------------|
Db|---9-9-9-9-9-9-9-9----|---6-6-6-6-4-4-4-4----|---9-9-9-9-9-9-9-9----|---6-6-6-6-4-4-4-4----|
Ab|---7-7-7-7-9-9-9-9----|---6-6-6-6-4-4-4-4----|---7-7-7-7-9-9-9-9----|---6-6-6-6-4-4-4-4----|
Eb|-----------7-7-7-7----|---4-4-4-4-2-2-2-2----|-----------7-7-7-7----|---4-4-4-4-2-2-2-2----|

Guitar 2   (No Staccatos)
Eb|----------------------|----------------------|----------------------|----------------------|
Bb|----------------------|----------------------|----------------------|----------------------|
Gb|---9-9-9-9------------|----------------------|---9-9-9-9------------|----------------------|
Db|---9-9-9-9-9-9-9-9----|---6-6-6-6-4-4-4-4----|---9-9-9-9-9-9-9-9----|---6-6-6-6-4-4-4-4----|
Ab|---7-7-7-7-9-9-9-9----|---6-6-6-6-4-4-4-4----|---7-7-7-7-9-9-9-9----|---6-6-6-6-4-4-4-4----|
Eb|-----------7-7-7-7----|---4-4-4-4-2-2-2-2----|-----------7-7-7-7----|---4-4-4-4-2-2-2-2----|

Guitar 1   (No Staccatos)
Eb|----------------------|----------------------|----------------------|----------------------|
Bb|----------------------|----------------------|----------------------|----------------------|
Gb|---9-9-9-9------------|----------------------|---9-9-9-9-9-9-9-9----|---6-6-6-6-8-8-8-8----|
Db|---9-9-9-9-9-9-9-9----|---6-6-6-6-4-4-4-4----|---9-9-9-9-9-9-9-9----|---6-6-6-6-8-8-8-8----|
Ab|---7-7-7-7-9-9-9-9----|---6-6-6-6-4-4-4-4----|---7-7-7-7-7-7-7-7----|---4-4-4-4-6-6-6-6----|
Eb|-----------7-7-7-7----|---4-4-4-4-2-2-2-2----|----------------------|----------------------|

Guitar 2   (No Staccatos)
Eb|----------------------|----------------------|----------------------|----------------------|
Bb|----------------------|----------------------|----------------------|----------------------|
Gb|---9-8-6-4-4-6-8\-----|----------------------|---9-9-9-9-9-9-9-9----|---6-6-6-6-8-8-8-8----|
Db|---X-X-X-X-X-X-X------|---6-6-6-6-4-4-4-4----|---9-9-9-9-9-9-9-9----|---6-6-6-6-8-8-8-8----|
Ab|---7-6-4-2-2-4-6\-----|---6-6-6-6-4-4-4-4----|---7-7-7-7-7-7-7-7----|---4-4-4-4-6-6-6-6----|
Eb|----------------------|---4-4-4-4-2-2-2-2----|----------------------|----------------------|



POST-CHORUS 2

Guitar 1   (No Staccatos)
Eb|--------------------|---------------------|--------------------|---------------------|
Bb|--------------------|---------------------|--------------------|---------------------|
Gb|----------9-9-------|---6-6----8-8-8-8----|----------9-9-------|---6-6----8-8-8-8----|
Db|---6-6----9-9-------|---6-6----8-8-8-8----|---6-6----9-9-------|---6-6----8-8-8-8----|
Ab|---6-6----7-7-------|---4-4----6-6-6-6----|---6-6----7-7-------|---4-4----6-6-6-6----|
Eb|---4-4--------------|---------------------|---4-4--------------|---------------------|

Guitar 2   (No Staccatos)
Eb|----------------------|----------------------|----------------------|----------------------|
Bb|----------------------|----------------------|----------------------|----------------------|
Gb|-----------9-9-X-X----|---6-6-X-X-8-8-8-8----|-----------9-9-X-X----|---6-6-X-X-8-8-8-8----|
Db|---6-6-X-X-7-7-X-X----|---6-6-X-X-8-8-8-8----|---6-6-X-X-7-7-X-X----|---6-6-X-X-8-8-8-8----|
Ab|---6-6-X-X-7-7-X-X----|---4-4-X-X-6-6-6-6----|---6-6-X-X-7-7-X-X----|---4-4-X-X-6-6-6-6----|
Eb|---4-4-X-X------------|----------------------|---4-4-X-X------------|----------------------|




BRIDGE

(When I'm GOOOOoooonnneee)
(Pickslide)

Guitar 1   (No Staccatos)
Eb|------------------------------|----------------------|
Bb|------------------------------|----------------------|
Gb|---13-13-13-13-13-13-13-13----|---9-9-9-9-9-9-9-9----|
Db|---13-13-13-13-13-13-13-13----|---9-9-9-9-9-9-9-9----|
Ab|---11-11-11-11-11-11-11-11----|---7-7-7-7-7-7-7-7----|
Eb|------------------------------|----------------------|

Guitar 2   (No Staccatos)
Eb|------------------------------|----------------------|
Bb|------------------------------|----------------------|
Gb|---13-13-13-13-13-13-13-13----|---9-9-9-9-9-9-9-9----|
Db|----X--X--X--X--X--X--X--X----|---X-X-X-X-X-X-X-X----|
Ab|---11-11-11-11-11-11-11-11----|---7-7-7-7-7-7-7-7----|
Eb|------------------------------|----------------------|

Guitar 1   (No Staccatos)
Eb|----------------------|----------------------|
Bb|----------------------|----------------------|
Gb|---4-4-4-4-4-4-4-4----|----------------------|
Db|---4-4-4-4-4-4-4-4----|---4-4-4-4-4-4-4-4----|
Ab|---2-2-2-2-2-2-2-2----|---4-4-4-4-4-4-4-4----|
Eb|----------------------|---2-2-2-2-2-2-2-2----|

Guitar 2   (No Staccatos)
Eb|----------------------|----------------------|
Bb|----------------------|----------------------|
Gb|---4-4-4-4-4-4-4-4----|----------------------|
Db|---X-X-X-X-X-X-X-X----|---4-4-4-4-4-4-4-4----|
Ab|---2-2-2-2-2-2-2-2----|---4-4-4-4-4-4-4-4----|
Eb|----------------------|---2-2-2-2-2-2-2-2----|

Guitar 1   (No Staccatos)
Eb|------------------------------|----------------------|
Bb|------------------------------|----------------------|
Gb|---13-13-13-13-13-13-13-13----|---9-9-9-9-9-9-9-9----|
Db|---13-13-13-13-13-13-13-13----|---9-9-9-9-9-9-9-9----|
Ab|---11-11-11-11-11-11-11-11----|---7-7-7-7-7-7-7-7----|
Eb|------------------------------|----------------------|

Guitar 2   (No Staccatos)
Eb|------------------------------|----------------------|
Bb|------------------------------|----------------------|
Gb|---13-13-13-13-13-13-13-13----|---9-9-9-9-9-9-9-9----|
Db|----X--X--X--X--X--X--X--X----|---X-X-X-X-X-X-X-X----|
Ab|---11-11-11-11-11-11-11-11----|---7-7-7-7-7-7-7-7----|
Eb|------------------------------|----------------------|

Guitar 1   (No Staccatos)
Eb|----------------------|----------------------|
Bb|----------------------|----------------------|
Gb|---4-4-4-4-4-4-4-4----|----------------------|
Db|---4-4-4-4-4-4-4-4----|---4-4-4-4-4\---------|
Ab|---2-2-2-2-2-2-2-2----|---4-4-4-4-4\---------|
Eb|----------------------|---2-2-2-2-2\---------|

Guitar 2   (No Staccatos)
Eb|----------------------|----------------------|
Bb|----------------------|----------------------|
Gb|---4-4-4-4-4-4-4-4----|----------------------|
Db|---X-X-X-X-X-X-X-X----|---4-4-4-4-4\---------|
Ab|---2-2-2-2-2-2-2-2----|---4-4-4-4-4\---------|
Eb|----------------------|---2-2-2-2-2\---------|



CHORUS 3

Guitar 1   (No Staccatos)
Eb|----------------------|----------------------|----------------------|----------------------|
Bb|----------------------|----------------------|----------------------|----------------------|
Gb|---9-9-9-9------------|----------------------|---9-9-9-9------------|----------------------|
Db|---9-9-9-9-9-9-9-9----|---6-6-6-6-4-4-4-4----|---9-9-9-9-9-9-9-9----|---6-6-6-6-4-4-4-4----|
Ab|---7-7-7-7-9-9-9-9----|---6-6-6-6-4-4-4-4----|---7-7-7-7-9-9-9-9----|---6-6-6-6-4-4-4-4----|
Eb|-----------7-7-7-7----|---4-4-4-4-2-2-2-2----|-----------7-7-7-7----|---4-4-4-4-2-2-2-2----|

Guitar 2   (No Staccatos)
Eb|----------------------|----------------------|----------------------|----------------------|
Bb|----------------------|----------------------|----------------------|----------------------|
Gb|---9-8-6-4-4-6-8\-----|----------------------|---9-8-6-4-4-6-8\-----|----------------------|
Db|---X-X-X-X-X-X-X------|---6-6-6-6-4-4-4-4----|---X-X-X-X-X-X-X------|---6-6-6-6-4-4-4-4----|
Ab|---7-6-4-2-2-4-6\-----|---6-6-6-6-4-4-4-4----|---7-6-4-2-2-4-6\-----|---6-6-6-6-4-4-4-4----|
Eb|----------------------|---4-4-4-4-2-2-2-2----|----------------------|---4-4-4-4-2-2-2-2----|

Guitar 1   (No Staccatos)
Eb|----------------------|----------------------|----------------------|----------------------|
Bb|----------------------|----------------------|----------------------|----------------------|
Gb|---9-9-9-9------------|----------------------|---9-9-9-9-9-9-9-9----|---6-6-6-6-8-8-8-8----|
Db|---9-9-9-9-9-9-9-9----|---6-6-6-6-4-4-4-4----|---9-9-9-9-9-9-9-9----|---6-6-6-6-8-8-8-8----|
Ab|---7-7-7-7-9-9-9-9----|---6-6-6-6-4-4-4-4----|---7-7-7-7-7-7-7-7----|---4-4-4-4-6-6-6-6----|
Eb|-----------7-7-7-7----|---4-4-4-4-2-2-2-2----|----------------------|----------------------|

Guitar 2   (No Staccatos)
Eb|----------------------|----------------------|----------------------|----------------------|
Bb|----------------------|----------------------|----------------------|----------------------|
Gb|---9-8-6-4-4-6-8\-----|----------------------|---9-9-9-9-9-9-9-9----|---6-6-6-6-8-8-8-8----|
Db|---X-X-X-X-X-X-X------|---6-6-6-6-4-4-4-4----|---9-9-9-9-9-9-9-9----|---6-6-6-6-8-8-8-8----|
Ab|---7-6-4-2-2-4-6\-----|---6-6-6-6-4-4-4-4----|---7-7-7-7-7-7-7-7----|---4-4-4-4-6-6-6-6----|
Eb|----------------------|---4-4-4-4-2-2-2-2----|----------------------|----------------------|



POST-CHORUS 3


Guitar 1   (No Staccatos)
Eb|--------------------|---------------------|--------------------|---------------------|
Bb|--------------------|---------------------|--------------------|---------------------|
Gb|----------9-9-------|---6-6----8-8-8-8----|----------9-9-------|---6-6----8-8-8-8----|
Db|---6-6----9-9-------|---6-6----8-8-8-8----|---6-6----9-9-------|---6-6----8-8-8-8----|
Ab|---6-6----7-7-------|---4-4----6-6-6-6----|---6-6----7-7-------|---4-4----6-6-6-6----|
Eb|---4-4--------------|---------------------|---4-4--------------|---------------------|

Guitar 2   (No Staccatos)
Eb|----------------------|----------------------|----------------------|----------------------|
Bb|----------------------|----------------------|----------------------|----------------------|
Gb|-----------9-9-X-X----|---6-6-X-X-8-8-8-8----|-----------9-9-X-X----|---6-6-X-X-8-8-8-8----|
Db|---6-6-X-X-7-7-X-X----|---6-6-X-X-8-8-8-8----|---6-6-X-X-7-7-X-X----|---6-6-X-X-8-8-8-8----|
Ab|---6-6-X-X-7-7-X-X----|---4-4-X-X-6-6-6-6----|---6-6-X-X-7-7-X-X----|---4-4-X-X-6-6-6-6----|
Eb|---4-4-X-X------------|----------------------|---4-4-X-X------------|----------------------|

Guitar 1   (No Staccatos)
Eb|--------------------|---------------------|--------------------|---------------------|
Bb|--------------------|---------------------|--------------------|---------------------|
Gb|----------9-9-------|---6-6----8-8-8-8----|----------9-9-------|---6-6----8-8-8-8----|
Db|---6-6----9-9-------|---6-6----8-8-8-8----|---6-6----9-9-------|---6-6----8-8-8-8----|
Ab|---6-6----7-7-------|---4-4----6-6-6-6----|---6-6----7-7-------|---4-4----6-6-6-6----|
Eb|---4-4--------------|---------------------|---4-4--------------|---------------------|

Guitar 2   (No Staccatos)
Eb|----------------------|----------------------|----------------------|----------------------|
Bb|----------------------|----------------------|----------------------|----------------------|
Gb|-----------9-9-X-X----|---6-6-X-X-8-8-8-8----|-----------9-9-X-X----|---6-6-X-X-8-8-8-8----|
Db|---6-6-X-X-7-7-X-X----|---6-6-X-X-8-8-8-8----|---6-6-X-X-7-7-X-X----|---6-6-X-X-8-8-8-8----|
Ab|---6-6-X-X-7-7-X-X----|---4-4-X-X-6-6-6-6----|---6-6-X-X-7-7-X-X----|---4-4-X-X-6-6-6-6----|
Eb|---4-4-X-X------------|----------------------|---4-4-X-X------------|----------------------|




OUTRO

  Guitar 1   (This is the techno intro)
Eb|----11--7--4--7-----|----12--7--4--2-----|
Bb|-----9--9--4--9-----|-----9--9--5--2-----|
Gb|-----8--8--4--8-----|-----9--9--4--1-----|
Db|--------------------|--------------------|
Ab|--------------------|--------------------|
Eb|--------------------|--------------------|

Eb|----11--7--4--7-----|----12--7--4--2-----|
Bb|-----9--9--4--9-----|-----9--9--5--2-----|
Gb|-----8--8--4--8-----|-----9--9--4--1-----|
Db|--------------------|--------------------|
Ab|--------------------|--------------------|
Eb|--------------------|--------------------|

            
            
Suggest correction
Creating personal tab
Creating personal tab
You can edit any tab online and save it as your Personal.

You can edit, replace or remove any tab part or add personal notes – all changes will be seen only by you.

Personal tabs can be accessed anytime from any device, even offline.
Learn more »
Give kudos to tab author, rate the tab!
1 2 3 4 5
comments
print report bad tab
guest
You may want to rate the tab now too:
select rating
Wanna post a correction for this tab? Suggest correction