Oops, an error
Loading. Please wait.

Worst Day Ever bass

version 1
version 1

Whole song

Interactive

1,338 views 1 this week
1 commentread comment
1 2 3 4 5
1 last vote to show rating
add to favorites
×
Save as Personal and add changes to this tab that will be seen only by you. Learn more ›
×
You can save this tab as Personal to edit and correct it or add notes. All changes will be seen only by you. Learn more »
launch autoscroll
font size
0
reset
guitar tuner
edit
Autoscroll
slow
fast
+/-
esc
set tempo
stop
Author
Song: Worst Day Ever
Artist: Simple Plan
Album: No Pads, No Helmets.. Just Balls
Bassist: David Desrosiers
Vocals: Pierre Bouvier
Tabbed for: Bass
Tuning: Standard [EADG]

~ = Let the previous note ring
x(#) = How many times you play that part (if in between, play the first half, then 
then first, then second)

NOTE: Special thanks to my bass teacher Pat Malloy for tabbing this out. I tabbed out 
parts, but he did most of it. I'm sorry for the timing issues, David (Desrosiers) has ten 
harder songs than Mark Hoppus of blink-182.

  Intro
G|---------------------------------|
D|-------------------------2-1-----|
A|-2-2-2-2-2-2-2-2-------------4---| x3
E|-----------------2-2-2-2---------|

G|---------------------------------|
D|---------------------------------|
A|---------------------------------|
E|-4-4-4-4-4-4-4-4---0~--0---------|

  Verse ["'Cause I don't think..."]
G|---------------------------------|
D|---------------------------------|
A|-------------------------2~------|
E|-0-0---0-0---2-2---2-2-----------|

(When he says "watch" from "watch the clock", play A|-2~-| again)

  Verse ["'Cause every day..."]
G|---------------------------------------|
D|---------------------------------------|
A|---------------------------------------|
E|-4-4---4-4---2-2---2-2---0---0---0---0-|

(While guitars ring, play A|-2-2-2-2-2-2-2-2-2-2-2-2-2-|)

  Chorus ["And it feels like..."]
G|----------------------|-----------------------|
D|----------------------|-----------------------|
A|-2~-2~-2-2------------|-2~-2~-----------------| (The timing is 1-2--&4-)
E|------------0~-0~-0-0-|-------2-2--0~-0~-4202-|

G|----------------------|-----------------------|
D|----------------------|-----------------------|
A|-2~-2~-2-2------------|-----------------------|
E|------------4~-4~-4-4-|-2~-2~-2-2--0202-------|

G|----------------------|-----------------------|
D|----------------------|-----------------------|
A|-2~-2~-2-2------------|------------4~-4~-4-4--|
E|------------0~-0~-0-0-|-4~-4~-4-4-------------|

G|---------------------|
D|---------------------|
A|---------------------|
E|-0-------0-0-0-2-2-2-|

Intro x2

  Verse 2 [Listen to the song for timing: {1:07}]
G|----------------------|-----------------------|
D|----------------------|-----------------------|
A|----------------------|---4~----4-4~----4-4~--|
E|-4~----4-4~----4-4~---|-4---------------------|

G|---------------------------------|---------------------------------|
D|---------------------------------|---------------------------------|
A|---------------------------------|---------------------------------|
E|-2-2-2-2-2-2-2-2-2-2-2-2-2-2-2-2-|-2-2-2-2-2-2-2-2-2-2-2-2-2-2-2-2-| (Gradually get louder)

G|---------------------------------------|
D|---------------------------------------|
A|---------------------------------------|
E|-4-4---4-4---2-2---2-2---0---0---0---0-|

(Again, while guitars ring, play A|-2-2-2-2-2-2-2-2-2-2-2-2-2-|)

Chorus x1

Intro x 1

  [Listen to song for timing: {1:57}]
G|---------------------------------------|
D|---------------------------------------|
A|---------2-2-2-2---------2-2-2-2-2-2-2-|
E|-2-2-2-------------2-2-2---------------|

  Bridge
G|---------------------------------|---------------------------------|
D|---------------------------------|---------------------------------|
A|-4-4-4--4-4-4--4-4-4--4-4-4---44-|---------4-----------------------| x2
E|----------------------------44---|-2~--1~----4~---4-4-4--4-4-4-----|

G|---------------------------------|---------------------------------|
D|---------------------------------|---------------------------------|
A|-4-4-4--4-4-4--4-4-4--4-4-4---44-|---------4-----------------------|
E|----------------------------44---|-2~--1~----4~--4-4-4-4-4-4-4-4-4-|

Short Break

  Chorus
G|----------------------|-----------------------|
D|----------------------|-----------------------|
A|-2~-2~-2-2------------|-----------------------|
E|------------4~-4~-4-4-|-2~-2~-2-2--0202-------|

G|----------------------|-----------------------|
D|----------------------|-----------------------|
A|-2~-2~-2-2------------|------------4~-4~-4-4--|
E|------------0~-0~-0-0-|-4~-4~-4-4-------------|

G|---------------------------------|
D|---------------------------------|
A|---------------------------------|
E|-0-0-0-0-2-2-2-2-0-0-0-0-2-2-2-2-|

Intro x 1

  [Listen to song for timing: {2:43}]
G|---------------------------------------|
D|---------------------------------------|
A|---------2-2-2-2---------2~------------|
E|-2-2-2-------------2-2-2---------------|

  Outro
G|---------------------------------|--------------------------------|
D|---------------------------------|-------------------------4-3----|
A|-4-4-4-4-4-4-4-4-----------------|----------------------------6---| x3
E|-----------------4-4-4-4-4-4-4-4-|-6-6-6-6-6-6-6-6-2-2-2-2--------|

G|---------------------------------|--------------------------------|
D|---------------------------------|--------------------------------|
A|-4-4-4-4-4-4-4-4-----------------|--------------------------------|
E|-----------------4-4-4-4-4-4-4-4-|-6~--6-------6~-----------------|

Verse 1
Pierre: Six AM, the clock is ringing
        I need to spend an hour snoozing
        'Cause I don't think I'm gonna make it
        I punch in, I'm still sleeping
        Watch the clock, but it's not moving
        'Cause every day is never ending
        I need to work, I'm always spending

Chorus
Pierre: And I feel like I'm living the worst day
        Over and over again
        And I feel like the summer is leaving again
        I feel like I'm living the worst day
        I feel like you're gone
        And every day is the worst day ever

Verse 2
Pierre: Yesterday was the worst day ever
        And tomorrow won't be better
        It's history repeating (on and on)
        Summer plans are gone forever
        I trade them in for dish pan water
        And every day is never ending
        I need to work, I'm always spending

Chorus
Pierre: And I feel like I'm living the worst day
        Over and over again
        And I feel like the summer is leaving again
        I feel like I'm living the worst day
        I feel like you're gone
        And every day is the worst day ever
        Woah-ohh... Every day is the worst day ever

Bridge
Pierre: It's so long, I can't go on
        It's so long, I can't go on

Chorus
Pierre: And I feel like I'm living the worst day
        Over and over again
        And I feel like the summer is leaving again
        I feel like I'm living the worst day
        I feel like you're gone
        And every day is the worst day ever
        Woah-ohh... Every day is the worst day ever

Outro
Pierre: Woah... Woah-oh oh-oh, woah-oh oh-oh
        Woah-oh oh-oh, woah-oh oh-oh
        Woah-oh oh-oh, is the worst day ever
        Woah-oh... Woah-oh-ohh

            
            
Suggest correction
Creating personal tab
Creating personal tab
You can edit any tab online and save it as your Personal.

You can edit, replace or remove any tab part or add personal notes – all changes will be seen only by you.

Personal tabs can be accessed anytime from any device, even offline.
Learn more »
Give kudos to tab author, rate the tab!
1 2 3 4 5
comments
print report bad tab
1 comment total.
0 reply
deityfan 10 Dec 16, 2008 05:35 AM

im not sure but the second verse sounds a lil off to me:S

guest
You may want to rate the tab now too:
select rating
Wanna post a correction for this tab? Suggest correction