Oops, an error
Loading. Please wait.

Your Love Is A Lie Tab

version 1
version 1
109,663 views 45 this week
6 commentsread comments
1 2 3 4 5
accurate
x 13
add to favorites
launch autoscroll
font size
0
reset
how to read this tab
guitar tuner
Tab Pro tools
  • play this tab
  • loop segment
  • change instrument
  • show fretboard
  • metronome
×
Best way to learn
"Your Love Is A Lie"
Autoscroll
slow
fast
+/-
esc
set tempo
stop
Contributor
Difficulty
novice
-------------------------------------------------------------------------------
                  Your Love Is A Lie - Simple Plan
-------------------------------------------------------------------------------
Tabbed by: Matthew McB
Email: nucleardelay@hotmail.com

Tuning: Standard ( EADGBE )

Intro - Verse
e|---------------------------------------------------------------------------|
B|---------------------------------------------------------------------------|
G|----8----------------6-----------------------------------------------------|
D|-8---8-8------6---6---6-6-----6--------------------------------------------|6x
A|6-6---6-----4----4-4---4----6----------------------------------------------|
E|-----------2-2-------------4-4---------------------------------------------|

Pre Chorus 
e|---------------------------------------------------------------------------|
B|4-4-6-6-7-7-9-9------------------------------------------------------------|5x
G|---------------------------------------------------------------------------|
D|---------------------------------------------------------------------------|
A|---------------------------------------------------------------------------|
E|---------------------------------------------------------------------------|

Chorus Guitar 1 Rhythm
e|---------------------------------------------------------------------------|
B|---------------------------------------------------------------------------|
G|88888-------6666666--------------------------------------------------------|
D|88888-44444-6666666-6666666------------------------------------------------|2x
A|66666-44444-4444444-6666666------------------------------------------------|
E|------22222---------4444444------------------------------------------------|

e|---------------------------------------------------------------------------|
B|---------------------------------------------------------------------------|
G|44444-------66666-------4444444-6666666------------------------------------|
D|44444-44444-66666-66666-4444444-6666666------------------------------------|1x
A|22222-44444-44444-66666-2222222-4444444------------------------------------|
E|------22222-------44444----------------------------------------------------|

Replay Intro, Verse, Pre Chorus and Chorus
Pre Chorus has a bit of a slide in it

Chorus Guitar 2 Lead
e|11------9------9----8------------------------------------------------------|
B|--11-11--11-11--9-9--9-9---------------------------------------------------|
G|----8------8-----8----8----------------------------------------------------|
D|---------------------------------------------------------------------------|
A|---------------------------------------------------------------------------|
E|---------------------------------------------------------------------------|

Guitar 2 Chorus is played through out chorus
Guitar 2 Chorus sounds better with delay
After Chorus the interlude is just the first four chorus chords palm muted

Solo ( Jeff plays the solo weird so I pritty much got this :P ) 
e|6b6b6b6b6b--------------6-----6b6b6b6b6b--------9-7--6b6b6b6b6b6b4b4b4b4b4b|
B|----------9-7-9-11-9-7-9-9-7-9----------9-7-9-11---11----------------------|
G|---------------------------------------------------------------------------|
D|---------------------------------------------------------------------------|
A|---------------------------------------------------------------------------|
E|---------------------------------------------------------------------------|

Chorus Rhythm and Lead
Interlude

Any problems please contact me.

| /  slide up
| \  slide down
| h  hammer-on
| p  pull-off
| ~  vibrato
| +  harmonic
| x  Mute note
===============================================================================
comments
print report bad tab
6 comments total. Showing first comments.
0 reply
lizacula wrote on January 15 2008, 10:39 pm

Thankyou so fcuking much for doing this..
many hugs for you

0 reply
KamalAzmy wrote on January 20 2008, 10:45 am

Can you make it chords for me plz.You rock!

0 reply
sum41rules wrote on February 19 2008, 11:39 am

what is this supposed 2 b???

I want to post or [tab]
guest
You may want to rate the tab now too:
select rating
Please do not post tabs as comments. Select "correction" instead!