Oops, an error
Loading. Please wait.

Your Love Is A Lie Bass Tab

version 2
version 2

Whole song

Interactive

10,915 views 6 this week
2 commentsread comments
1 2 3 4 5
excellent!
x 5
add to favorites
launch autoscroll
font size
0
reset
guitar tuner
Autoscroll
slow
fast
+/-
esc
set tempo
stop
Help us to improve Ultimate-Guitar.com Take our survey!
×
Author
Difficulty
novice
your love is a lie - Simple plan

no bass in verse 1

pre chorus

G:---------------------|
D:---------------------|
A:--44444--66666-------|
D:---------------------|


G:---------------------|
D:---------------------|
A:--44444--33333-------|
D:---------------------|

chorus

G:-----------------------------------------|
D:-----------------------------------------|   
A:----------------------66666666-----------|
D:--11111111--44444444------------66666666-|


G:-----------------------------------------|
D:-----------------------------------------|   
A:----------------------66666666-----------|
D:--11111111--44444444------------66666666-|


G:-----------------------------------------|
D:-----------------------------------------|    
A:--44444444------------66666666-----------|
D:------------44444444---------------------|

G:------------------------------|
D:------------------------------|
A:--99999999--1010101010101010--|
D:------------------------------|




no bass in verse 2


pre chorus

G:---------------------|
D:---------------------|
A:--44444--66666-------|
D:---------------------|


G:---------------------|
D:---------------------|
A:--44444--33333-------|
D:---------------------|

chorus

G:-----------------------------------------|
D:-----------------------------------------|  
A:----------------------66666666-----------|
D:--11111111--44444444------------66666666-|

G:-----------------------------------------|
D:-----------------------------------------|  
A:----------------------66666666-----------|
D:--11111111--44444444------------66666666-|

G:-----------------------------------------|
D:-----------------------------------------|    
A:--44444444------------66666666-----------|
D:------------44444444---------------------|

G:------------------------------|
D:------------------------------|
A:--99999999--1010101010101010--|
D:------------------------------|



lie lie .....

G:------------------|
D:------------------|
A:---------6--------|   x2
D:--1--4------6-----|



break 


G:----------------------------------------|
D:----------------------------------------|   x3
A:--4444444444444444--666666666666666666--|
D:----------------------------------------|




chorus

bass at 2:58


G:------------------------|
D:------------------------|   
A:---666666666------------|
D:--------------666666666-|


G:-----------------------------------------|
D:-----------------------------------------|   
A:----------------------66666666-----------|
D:--11111111--44444444------------66666666-|


G:-----------------------------------------|
D:-----------------------------------------|    
A:--44444444------------66666666-----------|
D:------------44444444---------------------|

G:------------------------------|
D:------------------------------|
A:--99999999--1010101010101010--|    x2
D:------------------------------|


lie lie .....

G:------------------|
D:------------------|
A:---------6--------|  x2
D:--1--4------6-----|



by meangirl
Suggest correction
comments
print report bad tab
2 comments total.
-1 reply
mathSPbass 10 wrote on June 20 2012, 11:58 am

nice tab :)

0 reply
RickyRubio 354 wrote on May 2 2016, 06:59 am

Many mistakes and lack of formating ...

guest
You may want to rate the tab now too:
select rating
Please do not post tabs as comments. Select "correction" instead!