Oops, an error
Loading. Please wait.

Your Love Is A Lie Tab

version 3
version 3
47,292 views 15 this week
7 commentsread comments
1 2 3 4 5
accurate
x 12
add to favorites
launch autoscroll
font size
0
reset
how to read this tab
guitar tuner
Autoscroll
slow
fast
+/-
esc
set tempo
stop
Help us to improve Ultimate-Guitar.com Take our survey!
×
Difficulty
intermediate
ok    firstly, none of the chords posted 4 this r right. they sound off key
so does the intro. 2 guitars are used, tunned;
Guitar 1-(F,A#,D#,G#,C,f)
Guitar 2-(D#,G#,C#,F#,A#,d#)

Intro x2
Guitar 1
f |---------0-----------------------------------------|
C |-------0---0-----------3----------3-----------2----|
G#|-----0-------0-------0--------2-----2-------2------|
D#|---2-----------2---0--------0---0-----0---2--------|
A#|--------------------------0-------------0----------|
F#|-0---------------3---------------------------------|

Verse 1
Guitar 1
f |---------0----------------------------------------------------------- |            _
C |-------0---0-----------3----------3------------2--|        ---------- |
G#|-----0-------0-------0--------2-----2--------2----|             |__-- |x4
D#|---2-----------2---0--------0---0-----0---2-------|        ---------- |
A#|--------------------------0-------------0---------|            ------ |
F#|-0---------------3--------------------------------|        ---------- |

Pre-chorus:
i cant bite my tongue forever, while you try to play it cool,
Guitar 1
f  |--------------------------------|------------------------------------|
C  |------5555-7777-8888-10101010---|--------5555-7777-8888-7777---------|
G#|---------------------------------|------------------------------------|
D#|---------------------------------|------------------------------------|
A#|---------------------------------|------------------------------------|
F#|---------------------------------|------------------------------------|
Guitar 2
d#|---------------------------|--------------------------|
A#|---------------------------|--------------------------|
F#|---------------------------|---------4----------------|
C#|-----7---------------------|---------4----------------|
G#|-----7---------------------|---------2----------------|
D#|-----5---------------------|--------------------------|

You can hide behind your stories, but don’t take me for a fool!
Guitar 1
f |--------------------------------|------------------------------------|
C |------5555-7777-8888-10101010---|--------5555-7777-8888-7777---------|
G#|--------------------------------|------------------------------------|
D#|--------------------------------|------------------------------------|
A#|--------------------------------|------------------------------------|
F#|--------------------------------|------------------------------------|

Guitar 2
d#|---------------------------|---------------------------|
A#|---------------------------|---------------------------|
F#|---------------------------|---------6-----------------|
C#|-----7---------------------|---------6-----------------|
G#|-----7---------------------|---------4-----------------|
D#|-----5---------------------|---------------------------|
Chorus
Guitar 2
d#|----------------------------|--------------------------|
A#|----------------------------|--------------------------|
F#|----------2222------4444----|--------2222------4444----|
C#|-----4444-2222-2222-4444----|---4444-2222-2222-4444----|
G#|-----4444-0000-2222-2222----|---4444-0000-2222-2222----|
D#|-----2222------0000---------|---2222------0000---------|

d#|----------------------------|--------------------------|
A#|----------------------------|--------------------------|
F#|-----7777-----------4444----|---77777777-99999999------|
C#|-----7777-7777-2222-4444----|---77777777-99999999------|
G#|-----5555-7777-2222-2222----|---55555555-77777777------|
D#|----------5555-0000---------|--------------------------|
Intro x2
Verse 2

Pre-chorus
so dont try to say your sorry, or try to make it right
Guitar 1
f |--------------------------------|------------------------------------|
C |------5555-7777-8888-10101010---|--------5555-7777-8888-7777---------|
G#|--------------------------------|------------------------------------|
D#|--------------------------------|------------------------------------|
A#|--------------------------------|------------------------------------|
F#|--------------------------------|------------------------------------|

Guitar 2
d#|---------------------------|--------------------------|
A#|---------------------------|--------------------------|
F#|---------------------------|---------4----------------|
C#|-----7---------------------|---------4----------------|
G#|-----7---------------------|---------2----------------|
D#|-----5---------------------|--------------------------|

and dont waste your breath, because, its to late, its to late...
Guitar 1
f |------------------------------------------|
C |------5555-7777-8888-10101010-------------|
G#|------------------------------------------|
D#|------------------------------------------|
A#|------------------------------------------|
F#|------------------------------------------|

Guitar 2
d#|---------------------------|
A#|---------------------------|
F#|---------------------------|
C#|-----7---------------------|
G#|-----7---------------------|
D#|-----5---------------------|
Chorus
Guitar 1
f |-----12-------10------10------9----|--12------10------10------9----|
C |--------12------10------10-----10--|----12------10------10----10---|
G#|----------12------11------11-----9-|------12------11------11----9--|
D#|-----------------------------------|-------------------------------|
A#|-----------------------------------|-------------------------------|
F#|-----------------------------------|-------------------------------|

Guitar 2
d#|----------------------------|--------------------------|
A#|----------------------------|--------------------------|
F#|----------2222------4444----|--------2222------4444----|
C#|-----4444-2222-2222-4444----|---4444-2222-2222-4444----|
G#|-----4444-0000-2222-2222----|---4444-0000-2222-2222----|
D#|-----2222------0000---------|---2222------0000---------|

Guitar 1
f |---10-----------------------------|-----------------------10------|
C |------12----10--------------------|--------13---------------------|
G#|-------------------12-------------|-------------------------------|
D#|----------------------------------|-------------------------------|
A#|----------------------------------|-------------------------------|
F#|----------------------------------|-------------------------------|

Guitar 2
d#|----------------------------|--------------------------|
A#|----------------------------|--------------------------|
F#|-----7777-----------4444----|---77777777-99999999------|
C#|-----7777-7777-2222-4444----|---77777777-99999999------|
G#|-----5555-7777-2222-2222----|---55555555-77777777------|
D#|----------5555-0000---------|--------------------------|

Coda
Guitar 2
d#|---------------------------|--------------------------|
A#|---------------------------|--------------------------|
F#|--------22222-------44444--|--------22222-------44444-|
C#|--44444-22222-22222-44444--|--44444-22222-22222-44444-|
G#|--44444-00000-22222-22222--|--44444-00000-22222-22222-|
D#|--22222-------00000--------|--22222-------00000-------|


Bridge
Guitar 2
d#|---------------------------|---------------------------------------|
A#|---------------------------|---------------------------------------|
F#|--77777-22222-------44444--|--77777-22222-------4444-4-6-----------|
C#|--77777-22222-22222-44444--|--77777-22222-22222-4444-4-6-----------|
G#|--55555-00000-22222-22222--|--55555-00000-22222-2222-2-4-----------|
D#|--------------00000--------|--------------00000--------------------|

d#|----------------------------------------|
A#|----------------------------------------|
F#|------77777777----44444444--------------|
C#|------77777777----44444444--------------|
G#|------55555555----22222222--------------|
D#|----------------------------------------|

Chorus
Guitar 1
f |-----12--------10------10------9----|--12------10------10-----9-----|
C |--------12-------10------10-----10--|----12------10------10----10---|
G#|-----------12------11------11-----9-|------12------11------11----9--|
D#|------------------------------------|-------------------------------|
A#|------------------------------------|-------------------------------|
F#|------------------------------------|-------------------------------|

Guitar 2
d#|-----------------------------|---------------------------------|
A#|-----------------------------|---------------------------------|
F#|------------4444-------------|--------2222------4444-----------|
C#|-------2222-4444-------------|---4444-2222-2222-4444-----------|
G#|-------2222-2222-------------|---4444-0000-2222-2222-----------|
D#|-------0000------------------|---2222------0000----------------|

Guitar 1
f -----10-----------------------|-----------------------10------------|
C |------------12----10---------|----------13-------------------------|
G#|--------------------------12-|-------------------------------------|
D#|-----------------------------|-------------------------------------|
A#|-----------------------------|-------------------------------------|
F#|-----------------------------|-------------------------------------|

Guitar 2
d#|----------------------------|----------------------------------|
A#|----------------------------|----------------------------------|
F#|-----7777-----------4444----|---77777777-99999999--------------|
C#|-----7777-7777-2222-4444----|---77777777-99999999--------------|
G#|-----5555-7777-2222-2222----|---55555555-77777777--------------|
D#|----------5555-0000---------|----------------------------------|

Guitar 1
f |---------------------10-------------|
C |--------13--------------------------|
G#|------------------------------------|
D#|------------------------------------|
A#|------------------------------------|
F#|------------------------------------|

Guitar 2
d#|---------------------------------------|
A#|---------------------------------------|
F#|-----77777777----99999999--------------|
C#|-----77777777----99999999--------------|
G#|-----55555555----77777777--------------|
D#|---------------------------------------|

Outro
Guitar 2
d#|---------------------------|-----------------------------------|
A#|---------------------------|-----------------------------------|
F#|--------22222-------44444--|--------22222-------44444----------|
C#|--44444-22222-22222-44444--|--44444-22222-22222-44444----------|
G#|--44444-00000-22222-22222--|--44444-00000-22222-22222----------|
D#|--22222-------00000--------|--22222-------00000----------------|

Guitar 2
d#|-----------------------|
A#|-----------------------|
F#|-----------------------|
C#|----44444--------------|
G#|----44444--------------|
D#|----22222--------------|


 that’s preety much it. you can fill in the bridge if you like. I cant be stuffed., I 
this from scratch and its 3:am so...
goodnight ;D

P.S.  plz rate it    its my first TAB
comments
print report bad tab
7 comments total. Showing first comments.
+5 reply
rockchick09 16 wrote on June 8 2008, 10:51 am

u dont have to tune your guitar funny... all u have to do is play it the way u have it written with a capo on one!

+1 reply
fenderkidd 122 wrote on June 21 2008, 06:48 pm

Wow, now that is truly genius!!! For those of you who are constantly re-tuning and changing your string tensions on your guitars, it is important to know that this is hard on the strings as well as the neck of your guitar. I would suggest the $10 dollar investment in a capo.

0 reply
AnEvilWalrus 556 wrote on August 1 2008, 09:51 pm

You don't tune the strings like that.
Personally, if I was going to be playing any more Simple Plan I would tune down a half step (most of their songs are in that tuning, I believe) and put a capo on the 2nd fret. but standard tuning with capo on 1 works too.

I want to post or [tab]
guest
You may want to rate the tab now too:
select rating
Please do not post tabs as comments. Select "correction" instead!