Oops, an error
Loading. Please wait.

Your Love Is A Lie Tab

version 4
version 4
2,483 views 6 this week
1 commentread comment
1 2 3 4 5
accurate
x 3
add to favorites
launch autoscroll
font size
0
reset
how to read this tab
guitar tuner
Tab Pro tools
  • play this tab
  • loop segment
  • change instrument
  • show fretboard
  • metronome
×
Best way to learn
"Your Love Is A Lie"
Autoscroll
slow
fast
+/-
esc
set tempo
stop
Contributor
YOUR LOVE IS A LIE
SIMPLE PLAN

Tab based on: http://www.youtube.com/watch?v=2RTzdszusgc

For original tuning:
Eb-Bb-Eb-G#-C-F


INTRO

D#|---------0----------------------------------------------|
A#|-------0---0-----------3---------3-----------------2----|
F#|-----0-------0-------0---------2-----2-----------2------|
C#|---2-----------2---0---------4---------4-------2--------|
G#|--------------------------(0)------------(0)-0----------|
C#|-2---------------5-------0------------------------------|

D#|---------0------------------------H-P-------------------|
A#|-------0---0-----------3---------2 3 2-------------2----|
F#|-----0-------0-------0---------2-------2---------2------|
C#|---2-----------2---0---------4-----------4-----2--------|
G#|--------------------------(0)------------(0)-0----------|
C#|-2---------------5-------0------------------------------|

VERSE 1

I fall asleep by the telephone It's 2 O'clock and I'm waiting up alone
D#|---------0----------------------------------------------|
A#|-------0---0-----------3---------3-----------------2----|
F#|-----0-------0-------0---------2-----2-----------2------|
C#|---2-----------2---0---------4---------4-------2--------|
G#|--------------------------(0)------------(0)-0----------|
C#|-2---------------5-------0------------------------------|

Tell me where have you been?
D#|---------0------------------------H-P-------------------|
A#|-------0---0-----------3---------2 3 2-------------2----|
F#|-----0-------0-------0---------2-------2---------2------|
C#|---2-----------2---0---------4-----------4-----2--------|
G#|--------------------------(0)------------(0)-0----------|
C#|-2---------------5-------0------------------------------|

I found a note with another name You blow a kiss, but it just don't feel the same
D#|---------0----------------------------------------------|
A#|-------0---0-----------3---------3-----------------2----|
F#|-----0-------0-------0---------2-----2-----------2------|
C#|---2-----------2---0---------4---------4-------2--------|
G#|--------------------------(0)------------(0)-0----------|
C#|-2---------------5-------0------------------------------|

Cause I can feel that you're gone
D#|---------0------------------------H-P-------------------|
A#|-------0---0-----------3---------2 3 2-------------2----|
F#|-----0-------0-------0---------2-------2---------2------|
C#|---2-----------2---0---------4-----------4-----2--------|
G#|--------------------------(0)------------(0)-0----------|
C#|-2---------------5-------0------------------------------|

PRE-CHORUS

I can't bite my tongue forever
Guitar 1
D#|--------------------------------------------------------|
A#|----5-5-5-5--7-7-7-7--8-8-8-8--10-10-10-10--------------|
F#|--------------------------------------------------------|
C#|--------------------------------------------------------|
G#|--------------------------------------------------------|
C#|--------------------------------------------------------|

While you try to play it cool
Guitar 1
D#|--------------------------------------------------------|
A#|----5-5-5-5--7-7-7-7--8-8-8-8--7-7-7-7------------------|
F#|--------------------------------------------------------|
C#|--------------------------------------------------------|
G#|--------------------------------------------------------|
C#|--------------------------------------------------------|

You can hide behind your stories
Guitar 1
D#|--------------------------------------------------------|
A#|----5-5-5-5--7-7-7-7--8-8-8-8--10-10-10-10--------------|
F#|--------------------------------------------------------|
C#|--------------------------------------------------------|
G#|--------------------------------------------------------|
C#|--------------------------------------------------------|

But don't take me for a fool
Guitar 1
D#|--------------------------------------------------------|
A#|----12-12-12-12-12-12-12-12-12-12-12-12-----------------|
F#|--------------------------------------------------------|
C#|--------------------------------------------------------|
G#|--------------------------------------------------------|
C#|--------------------------------------------------------|

CHORUS
You can tell me that there's nobody else(But I feel it)
D#|--------------------------------------------------------|
A#|--------------------------------------------------------|
F#|-------------------------7---7-X-X----------------------|
C#|-----2---2-X-X-5---5-X-X-7---7-X-X-7---7-X-X------------|
G#|-----2---2-X-X-5---5-X-X-5---5-X-X-7---7-X-X------------|
C#|-----2---2-X-X-5---5-X-X-----------7---7-X-X------------|

You can tell me that you're home by yourself(But I see it)
D#|--------------------------------------------------------|
A#|--------------------------------------------------------|
F#|-------------------------7---7-X-X----------------------|
C#|-----2---2-X-X-5---5-X-X-7---7-X-X-7---7-X-X------------|
G#|-----2---2-X-X-5---5-X-X-5---5-X-X-7---7-X-X------------|
C#|-----2---2-X-X-5---5-X-X-----------7---7-X-X------------|

You can look into my eyes and pretend all you want
D#|--------------------------------------------------------|
A#|--------------------------------------------------------|
F#|-----5---5-X-X-----------7---7-X-X----------------------|
C#|-----5---5-X-X-5---5-X-X-7---7-X-X-7---7-X-X------------|
G#|-----3---3-X-X-5---5-X-X-5---5-X-X-7---7-X-X------------|
C#|---------------5---5-X-X-----------7---7-X-X------------|

But I know, I know, Your love is just
D#|--------------------------------------------------------|
A#|--------------------------------------------------------|
F#|----5-5-5-5-5-5-5-5-7-7-7-7-7-7-7-7---------------------|
C#|----5-5-5-5-5-5-5-5-7-7-7-7-7-7-7-7---------------------|
G#|----3-3-3-3-3-3-3-3-5-5-5-5-5-5-5-5---------------------|
C#|--------------------------------------------------------|

a lie (Lie)     It's nothing but
D#|---------0----------------------------------------------|
A#|-------0---0-----------3---------3-----------------2----|
F#|-----0-------0-------0---------2-----2-----------2------|
C#|---2-----------2---0---------4---------4-------2--------|
G#|--------------------------(0)------------(0)-0----------|
C#|-2---------------5-------0------------------------------|

 a lie (Lie)
D#|---------0------------------------H-P-------------------|
A#|-------0---0-----------3---------2 3 2-------------2----|
F#|-----0-------0-------0---------2-------2---------2------|
C#|---2-----------2---0---------4-----------4-----2--------|
G#|--------------------------(0)------------(0)-0----------|
C#|-2---------------5-------0------------------------------|

VERSE 2

You look so innocent But the guilt in your voice gives you away
D#|---------0----------------------------------------------|
A#|-------0---0-----------3---------3-----------------2----|
F#|-----0-------0-------0---------2-----2-----------2------|
C#|---2-----------2---0---------4---------4-------2--------|
G#|--------------------------(0)------------(0)-0----------|
C#|-2---------------5-------0------------------------------|

Yeah you know what I mean
D#|---------0----------------------------------------------|
A#|-------0---0-----------3---------3-----------------2----|
F#|-----0-------0-------0---------2-----2-----------2------|
C#|---2-----------2---0---------4---------4-------2--------|
G#|--------------------------(0)------------(0)-0----------|
C#|-2---------------5-------0------------------------------|

How does it feel when you kiss when you know that i trust you And do you think about me 
he fucks you?
D#|---------0------------------------H-P-------------------|
A#|-------0---0-----------3---------2 3 2-------------2----|
F#|-----0-------0-------0---------2-------2---------2------|
C#|---2-----------2---0---------4-----------4-----2--------|
G#|--------------------------(0)------------(0)-0----------|
C#|-2---------------5-------0------------------------------|

Could you be more obscene?
D#|---------0----------------------------------------------|
A#|-------0---0-----------3---------3-----------------2----|
F#|-----0-------0-------0---------2-----2-----------2------|
C#|---2-----------2---0---------4---------4-------2--------|
G#|--------------------------(0)------------(0)-0----------|
C#|-2---------------5-------0------------------------------|


So dont try to say you're sorry
Guitar 1
D#|--------------------------------------------------------|
A#|----5-5-5-5--7-7-7-7--8-8-8-8--10-10-10-10--------------|
F#|--------------------------------------------------------|
C#|--------------------------------------------------------|
G#|--------------------------------------------------------|
C#|--------------------------------------------------------|

Or try to make it right
Guitar 1
D#|--------------------------------------------------------|
A#|----5-5-5-5--7-7-7-7--8-8-8-8--7-7-7-7------------------|
F#|--------------------------------------------------------|
C#|--------------------------------------------------------|
G#|--------------------------------------------------------|
C#|--------------------------------------------------------|

Don't waste your breath because it's too late, it's too late.
Guitar 1
D#|---------------------------------------------------X-X---X-X-|
A#|----5-5-5-5--7-7-7-7--8-8-8-8--10-10-10-10---------X-X---X-X-|
F#|---------------------------------------------------X-X---X-X-|
C#|---------------------------------------------------X-X---X-X-|
G#|---------------------------------------------------X-X---X-X-|
C#|---------------------------------------------------X-X---X-X-|

CHORUS 2

You can tell me that there's nobody else (But I feel it)
Guitar 1
D#|-----12-------12-10-------10-10-------10-9------9-------|
A#|--------12----------12----------10---------10-----------|
F#|-----------12----------12----------11---------9---------|
C#|--------------------------------------------------------|
G#|--------------------------------------------------------|
C#|--------------------------------------------------------|

Guitar 2
D#|--------------------------------------------------------|
A#|--------------------------------------------------------|
F#|-------------------------7---7-X-X----------------------|
C#|-----2---2-X-X-5---5-X-X-7---7-X-X-7---7-X-X------------|
G#|-----2---2-X-X-5---5-X-X-5---5-X-X-7---7-X-X------------|
C#|-----2---2-X-X-5---5-X-X-----------7---7-X-X------------|


You can tell me that you're home by yourself (But I see it)
Guitar 1
D#|-----12-------12-10-------10-10-------10-9------9-------|
A#|--------12----------12----------10---------10-----------|
F#|-----------12----------12----------11---------9---------|
C#|--------------------------------------------------------|
G#|--------------------------------------------------------|
C#|--------------------------------------------------------|

Guitar 2
D#|--------------------------------------------------------|
A#|--------------------------------------------------------|
F#|-------------------------7---7-X-X----------------------|
C#|-----2---2-X-X-5---5-X-X-7---7-X-X-7---7-X-X------------|
G#|-----2---2-X-X-5---5-X-X-5---5-X-X-7---7-X-X------------|
C#|-----2---2-X-X-5---5-X-X-----------7---7-X-X------------|


You can look into my eyes and pretend all you want
Guitar 1
D#|---------------------------10----10----9----9-----------|
A#|---13----13----12----12-------10----10---10---10--------|
F#|------12----12----12----12------------------------------|
C#|--------------------------------------------------------|
G#|--------------------------------------------------------|
C#|--------------------------------------------------------|

Guitar 2
D#|--------------------------------------------------------|
A#|--------------------------------------------------------|
F#|-----5---5-X-X-----------7---7-X-X----------------------|
C#|-----5---5-X-X-5---5-X-X-7---7-X-X-7---7-X-X------------|
G#|-----3---3-X-X-5---5-X-X-5---5-X-X-7---7-X-X------------|
C#|---------------5---5-X-X-----------7---7-X-X------------|

But I know, I know,
Guitar 1 & Guitar 2
D#|--------------------------------------------------------|
A#|--------------------------------------------------------|
F#|----5-5-5-5-5-5-5-5-7-7-7-7-7-7-7-7---------------------|
C#|----5-5-5-5-5-5-5-5-7-7-7-7-7-7-7-7---------------------|
G#|----3-3-3-3-3-3-3-3-5-5-5-5-5-5-5-5---------------------|
C#|--------------------------------------------------------|

Your love is just a
			lie 	  (Lie)         (Lie)
Guitar 1 & Guitar 2
D#|--------------------------------------------------------|
A#|--------------------------------------------------------|
F#|----------------------------X-X-X-X-7--7----------------|
C#|----X-X-X-X-2---X-X-X-X-5---X-X-X-X-7--7--7-------------|
G#|----X-X-X-X-2---X-X-X-X-5---X-X-X-X-5--5--7-------------|
C#|----X-X-X-X-2---X-X-X-X-5-----------------7-------------|

It's nothing but a
			lie		 (Lie) 		(Lie)
Guitar 1 & Guitar 2
D#|--------------------------------------------------------|
A#|--------------------------------------------------------|
F#|----------------------------X-X-X-X-7--7----------------|
C#|----X-X-X-X-2---X-X-X-X-5---X-X-X-X-7--7--7-------------|
G#|----X-X-X-X-2---X-X-X-X-5---X-X-X-X-5--5--7-------------|
C#|----X-X-X-X-2---X-X-X-X-5-----------------7-------------|


You're nothing but a lie
-SOLO-
Guitar 1
D#|--------------------------------------------------------|
A#|-----/12-12-12----8-8-8-7-/10-10-10---8-7-8-------------|
F#|--------------------------------------------------------|
C#|--------------------------------------------------------|
G#|--------------------------------------------------------|
C#|--------------------------------------------------------|

Guitar 2
D#|--------------------------------------------------------|
A#|--------------------------------------------------------|
F#|-----5---5-X-X-----------7---7-X-X----------------------|
C#|-----5---5-X-X-5---5-X-X-7---7-X-X-7---7-X-X------------|
G#|-----3---3-X-X-5---5-X-X-5---5-X-X-7---7-X-X------------|
C#|---------------5---5-X-X-----------7---7-X-X------------|

Guitar 1
D#|--------------------------------------------------------|
A#|----/12-12-12----8-8-8-7-8-7-8-----8-10-----------------|
F#|--------------------------------------------------------|
C#|--------------------------------------------------------|
G#|--------------------------------------------------------|
C#|--------------------------------------------------------|

Guitar 2
D#|--------------------------------------------------------|
A#|--------------------------------------------------------|
F#|-----5---5-X-X-----------7---7-X-X----------------------|
C#|-----5---5-X-X-5---5-X-X-7---7-X-X-7---7-X-X------------|
G#|-----3---3-X-X-5---5-X-X-5---5-X-X-7---7-X-X------------|
C#|---------------5---5-X-X-----------7---7-X-X------------|

Guitar 1
D#|--------------------------------------------------------|
A#|-----10/12-12-12-12-12-12-12-12-12/10-------------------|
F#|--------------------------------------------------------|
C#|--------------------------------------------------------|
G#|--------------------------------------------------------|
C#|--------------------------------------------------------|

Guitar 2
D#|--------------------------------------------------------|
A#|--------------------------------------------------------|
F#|----5-5-5-5-5-5-5-5-7-7-7-7-7-7-7-7---------------------|
C#|----5-5-5-5-5-5-5-5-7-7-7-7-7-7-7-7---------------------|
G#|----3-3-3-3-3-3-3-3-5-5-5-5-5-5-5-5---------------------|
C#|--------------------------------------------------------|


--CHORUS 3--
You can
tell me that there's nobody else (But I feel it)
Guitar 1
D#|-----12-------12-10-------10-10-------10-9------9-------|
A#|--------12----------12----------10---------10-----------|
F#|-----------12----------12----------11---------9---------|
C#|--------------------------------------------------------|
G#|--------------------------------------------------------|
C#|--------------------------------------------------------|

Guitar 2
D#|--------------------------------------------------------|
A#|--------------------------------------------------------|
F#|-------------------------7---7-X-X----------------------|
C#|-------------------------7---7-X-X-7---7-X-X------------|
G#|-------------------------5---5-X-X-7---7-X-X------------|
C#|-----------------------------------7---7-X-X------------|

You can tell me that you're home by yourself (But I see it)
Guitar 1
D#|-----12-------12-10-------10-10-------10-9------9-------|
A#|--------12----------12----------10---------10-----------|
F#|-----------12----------12----------11---------9---------|
C#|--------------------------------------------------------|
G#|--------------------------------------------------------|
C#|--------------------------------------------------------|

Guitar 2
D#|--------------------------------------------------------|
A#|--------------------------------------------------------|
F#|-------------------------7---7-X-X----------------------|
C#|-----2---2-X-X-5---5-X-X-7---7-X-X-7---7-X-X------------|
G#|-----2---2-X-X-5---5-X-X-5---5-X-X-7---7-X-X------------|
C#|-----2---2-X-X-5---5-X-X-----------7---7-X-X------------|


You can look into my eyes and pretend all you want
Guitar 1
D#|---------------------------10----10----9----9-----------|
A#|---13----13----12----12-------10----10---10---10--------|
F#|------12----12----12----12------------------------------|
C#|--------------------------------------------------------|
G#|--------------------------------------------------------|
C#|--------------------------------------------------------|

Guitar 2
D#|--------------------------------------------------------|
A#|--------------------------------------------------------|
F#|-----5---5-X-X-----------7---7-X-X----------------------|
C#|-----5---5-X-X-5---5-X-X-7---7-X-X-7---7-X-X------------|
G#|-----3---3-X-X-5---5-X-X-5---5-X-X-7---7-X-X------------|
C#|---------------5---5-X-X-----------7---7-X-X------------|

But I know, I know, Your love is just a lie
Guitar 1 & Guitar 2
D#|--------------------------------------------------------|
A#|--------------------------------------------------------|
F#|----5-5-5-5-5-5-5-5-7-7-7-7-7-7-7-7---------------------|
C#|----5-5-5-5-5-5-5-5-7-7-7-7-7-7-7-7---------------------|
G#|----3-3-3-3-3-3-3-3-5-5-5-5-5-5-5-5---------------------|
C#|--------------------------------------------------------|

I know you're nothing but a

Guitar 1 & Guitar 2
D#|--------------------------------------------------------|
A#|--------------------------------------------------------|
F#|----5-5-5-5-5-5-5-5-7-7-7-7-7-7-7-7---------------------|
C#|----5-5-5-5-5-5-5-5-7-7-7-7-7-7-7-7---------------------|
G#|----3-3-3-3-3-3-3-3-5-5-5-5-5-5-5-5---------------------|
C#|--------------------------------------------------------|


			lie  (Lie)	   Lie	(Lie) you're nothing but a
Guitar 1 & Guitar 2
D#|--------------------------------------------------------|
A#|--------------------------------------------------------|
F#|----------------------------X-X-X-X-7--7----------------|
C#|----X-X-X-X-2---X-X-X-X-5---X-X-X-X-7--7--7-------------|
G#|----X-X-X-X-2---X-X-X-X-5---X-X-X-X-5--5--7-------------|
C#|----X-X-X-X-2---X-X-X-X-5-----------------7-------------|

			Lie	(Lie)	 Lie	(Lie)  Your love is just
Guitar 1 & Guitar 2
D#|--------------------------------------------------------|
A#|--------------------------------------------------------|
F#|----------------------------X-X-X-X-7--7----------------|
C#|----X-X-X-X-2---X-X-X-X-5---X-X-X-X-7--7--7-------------|
G#|----X-X-X-X-2---X-X-X-X-5---X-X-X-X-5--5--7-------------|
C#|----X-X-X-X-2---X-X-X-X-5-----------------7-------------|

 a lie

D#|--------------------------------------------------------|
A#|--------------------------------------------------------|
F#|--------------------------------------------------------|
C#|----X-X-X-X---------------------------------------------|
G#|----X-X-X-X---------------------------------------------|
C#|----X-X-X-X---------------------------------------------|
comments
We did not receive enough feedback on this tab! Please rate:
print report bad tab
1 2 3 4 5
1 comment total.
0 reply
smartflight wrote on April 3 2010, 12:23 pm

The tab looks nice and accurate. But I think you're missing one part..will let you know.
I will try it out tomorrow and rate it, as well as post a little review.

I want to post or [tab]
guest
You may want to rate the tab now too:
select rating
Please do not post tabs as comments. Select "correction" instead!