Oops, an error
Loading. Please wait.

Your Love Is A Lie Tab

version 6
version 6
7,729 views 9 this week
no commentswrite comment
1 2 3 4 5
accurate
x 3
add to favorites
launch autoscroll
font size
0
reset
how to read this tab
guitar tuner
Tab Pro tools
  • play this tab
  • loop segment
  • change instrument
  • show fretboard
  • metronome
Autoscroll
slow
fast
+/-
esc
set tempo
stop
Contributor
Difficulty
Tuning
intermediate
D# G# C# F# A# D#
--------------------------------
Your Love is a Lie ~ Simple Plan
--------------------------------
Album: Simple Plan (2008)

Tabbed By: RussCool
(I know, pretty lame name)

Tuning: Half Step Down 


Guitarists:
Jeff Stinco
Sebastien Lefebvre



INTRO

Both Guitars
Eb|-----------2----------|------------------|
Bb|---------2---2--------|---------5--------|
Gb|-------2-------2------|-------6----------|
Db|-----4-----------4----|-----7------------|
Ab|----------------------|------------------|
Eb|---2------------------|---5--------------|

Eb|-----------0----------|------------------|
Bb|---------0---0--------|---------4--------|
Gb|-------1-------1------|-------4----------|
Db|-----2-----------2----|-----4------------|
Ab|----------------------|---2--------------|
Eb|---0------------------|------------------|

Eb|-----------2----------|------------------|
Bb|---------2---2--------|---------5--------|
Gb|-------2-------2------|-------6----------|
Db|-----4-----------4----|-----7------------|
Ab|----------------------|------------------|
Eb|---2------------------|---5--------------|

Eb|-----------0----------|------------------|
Bb|---------0---0--------|---------4--------|
Gb|-------1-------1------|-------4----------|
Db|-----2-----------2----|-----4------------|
Ab|----------------------|---2--------------|
Eb|---0------------------|------------------|


VERSE
(Same as Intro)


PRE-CHORUS

GUITAR 1
Eb|---2-2-2-2-4-4-4-4----|---5-5-5-5-7-7-7-7----|
Bb|----------------------|----------------------|
Gb|----------------------|----------------------|
Db|----------------------|----------------------|
Ab|----------------------|----------------------|
Eb|----------------------|----------------------|

Eb|---2-2-2-2-4-4-4-4----|---5-5-5-5-4-4-4-4----|
Bb|----------------------|----------------------|
Gb|----------------------|----------------------|
Db|----------------------|----------------------|
Ab|----------------------|----------------------|
Eb|----------------------|----------------------|

Eb|---2-2-2-2-4-4-4-4----|---5-5-5-5-7-7-7-7----|
Bb|----------------------|----------------------|
Gb|----------------------|----------------------|
Db|----------------------|----------------------|
Ab|----------------------|----------------------|
Eb|----------------------|----------------------|

Eb|---2-2-2-2-4-4-4-4----|---5-5-5-5-4-4-4-4----|
Bb|----------------------|----------------------|
Gb|----------------------|----------------------|
Db|----------------------|----------------------|
Ab|----------------------|----------------------|
Eb|----------------------|----------------------|

GUITAR 2
Eb|-----------|-----------|-----------|-----------|
Bb|-----------|-----------|-----------|-----------|
Gb|-----------|---4-------|-----------|---6-------|
Db|---7-------|---4-------|---7-------|---6-------|
Ab|---7-------|---2-------|---7-------|---4-------|
Eb|---5-------|-----------|---5-------|-----------|

Eb|-----------|-----------|-----------|-----------|
Bb|-----------|-----------|-----------|-----------|
Gb|-----------|---4-------|-----------|---6-------|
Db|---7-------|---4-------|---7-------|---6-------|
Ab|---7-------|---2-------|---7-------|---4-------|
Eb|---5-------|-----------|---5-------|-----------|


CHORUS

GUITAR 1 (Both Guitars are optional)
Eb|------------------|-------------------|
Bb|------------------|-------------------|
Gb|------------------|---2--2--2--2------|
Db|---4--4--4--4-----|---2--2--2--2------|
Ab|---4--4--4--4-----|---0--0--0--0------|
Eb|---2--2--2--2-----|-------------------|

Eb|------------------|-------------------|
Bb|------------------|-------------------|
Gb|------------------|---4--4--4--4------|
Db|---2--2--2--2-----|---4--4--4--4------|
Ab|---2--2--2--2-----|---2--2--2--2------|
Eb|---0--0--0--0-----|-------------------|

Eb|------------------|-------------------|
Bb|------------------|-------------------|
Gb|------------------|---2--2--2--2------|
Db|---4--4--4--4-----|---2--2--2--2------|
Ab|---4--4--4--4-----|---0--0--0--0------|
Eb|---2--2--2--2-----|-------------------|

Eb|------------------|-------------------|
Bb|------------------|-------------------|
Gb|------------------|---4--4--4--4------|
Db|---2--2--2--2-----|---4--4--4--4------|
Ab|---2--2--2--2-----|---2--2--2--2------|
Eb|---0--0--0--0-----|-------------------|

Eb|------------------|-------------------|
Bb|------------------|-------------------|
Gb|---7--7--7--7-----|-------------------|
Db|---7--7--7--7-----|---7--7--7--7------|
Ab|---5--5--5--5-----|---7--7--7--7------|
Eb|------------------|---5--5--5--5------|

Eb|------------------|-------------------|
Bb|------------------|-------------------|
Gb|------------------|---4--4--4--4------|
Db|---2--2--2--2-----|---4--4--4--4------|
Ab|---2--2--2--2-----|---2--2--2--2------|
Eb|---0--0--0--0-----|-------------------|

Eb|----------------------|----------------------|
Bb|----------------------|----------------------|
Gb|---7-7-7-7-7-7-7-7----|---9-9-9-9-9-9-9-9----|
Db|---7-7-7-7-7-7-7-7----|---9-9-9-9-9-9-9-9----|
Ab|---5-5-5-5-5-5-5-5----|---7-7-7-7-7-7-7-7----|
Eb|----------------------|----------------------|


INTRO

VERSE

PRE-CHORUS



CHORUS

(Same as first Chorus only Guitar 2 plays this):
GUITAR 2
Eb|---14----------14--|---12----------12--|
Bb|-------14----------|-------14----------|
Gb|-----------14------|-----------14------|
Db|-------------------|-------------------|
Ab|-------------------|-------------------|
Eb|-------------------|-------------------|

Eb|---12----------12--|---11----------11--|
Bb|-------12----------|-------12----------|
Gb|-----------13------|-----------11------|
Db|-------------------|-------------------|
Ab|-------------------|-------------------|
Eb|-------------------|-------------------|

Eb|---14----------14--|---12----------12--|
Bb|-------14----------|-------14----------|
Gb|-----------14------|-----------14------|
Db|-------------------|-------------------|
Ab|-------------------|-------------------|
Eb|-------------------|-------------------|

Eb|---12----------12--|---11----------11--|
Bb|-------12----------|-------12----------|
Gb|-----------13------|-----------11------|
Db|-------------------|-------------------|
Ab|-------------------|-------------------|
Eb|-------------------|-------------------|

Eb|----------------------|----------------------|
Bb|---15------15---------|---14------14---------|
Gb|-------14------14-----|-------14------14-----|
Db|----------------------|----------------------|
Ab|----------------------|----------------------|
Eb|----------------------|----------------------|

Eb|---12------12---------|---11------11---------|
Bb|-------12------12-----|-------12------12-----|
Gb|----------------------|----------------------|
Db|----------------------|----------------------|
Ab|----------------------|----------------------|
Eb|----------------------|----------------------|

Eb|------------|---12-------|
Bb|---15-------|------------|
Gb|------------|------------|
Db|------------|------------|
Ab|------------|------------|
Eb|------------|------------|


BRIDGE

BOTH GUITARS
Eb|------------------|------------------|
Bb|------------------|------------------|
Gb|------------------|---2-2-2-2-2------|
Db|---4-4-4-4-4------|---2-2-2-2-2------|
Ab|---4-4-4-4-4------|---0-0-0-0-0------|
Eb|---2-2-2-2-2------|------------------|

Eb|------------------|------------------|
Bb|------------------|------------------|
Gb|------------------|---4-4-4-4-4------|
Db|---2-2-2-2-2------|---4-4-4-4-4------|
Ab|---2-2-2-2-2------|---2-2-2-2-2------|
Eb|---0-0-0-0-0------|------------------|

Eb|------------------|------------------|
Bb|------------------|------------------|
Gb|------------------|---2-2-2-2-2------|
Db|---4-4-4-4-4------|---2-2-2-2-2------|
Ab|---4-4-4-4-4------|---0-0-0-0-0------|
Eb|---2-2-2-2-2------|------------------|

Eb|------------------|------------------|
Bb|------------------|------------------|
Gb|------------------|---4-4-4-4-4------|
Db|---2-2-2-2-2------|---4-4-4-4-4------|
Ab|---2-2-2-2-2------|---2-2-2-2-2------|
Eb|---0-0-0-0-0------|------------------|


SOLO

GUITAR 1
Eb|----9--9---9--9--5-5----|---5-5-7-7-7-7-7-5----|
Bb|---10-10--10-10--5-5----|---5-5-5-5-5-5-5-5----|
Gb|------------------------|----------------------|
Db|------------------------|----------------------|
Ab|------------------------|----------------------|
Eb|------------------------|----------------------|

Eb|---4-5---9--9---9--9----|----9-5-5--5-4-5-4----|
Bb|---4-5--10-10--10-10----|---10-5-5--5-5-5-5----|
Gb|------------------------|----------------------|
Db|------------------------|----------------------|
Ab|------------------------|----------------------|
Eb|------------------------|----------------------|

Eb|---5---9--9--9--9--9--9----|----9-7-7-7-7-7-------|
Bb|---5--10-10-10-10-10-10----|---10-9-9-9-9-9-------|
Gb|---------------------------|----------------------|
Db|---------------------------|----------------------|
Ab|---------------------------|----------------------|
Eb|---------------------------|----------------------|

GUITAR 2
Eb|----------------------|----------------------|
Bb|----------------------|----------------------|
Gb|---7-7-7-7------------|-----------4-4-4-4----|
Db|---7-7-7-7-7-7-7-7----|---2-2-2-2-4-4-4-4----|
Ab|---5-5-5-5-7-7-7-7----|---2-2-2-2-2-2-2-2----|
Eb|-----------5-5-5-5----|---0-0-0-0------------|

Eb|----------------------|----------------------|
Bb|----------------------|----------------------|
Gb|---7-7-7-7------------|-----------4-4-4-4----|
Db|---7-7-7-7-7-7-7-7----|---2-2-2-2-4-4-4-4----|
Ab|---5-5-5-5-7-7-7-7----|---2-2-2-2-2-2-2-2----|
Eb|-----------5-5-5-5----|---0-0-0-0------------|

Eb|----------------------|----------------------|
Bb|----------------------|----------------------|
Gb|---7-7-7-7-7-7-7-7----|---9-9-9-9-9-9--------|
Db|---7-7-7-7-7-7-7-7----|---9-9-9-9-9-9--------|
Ab|---5-5-5-5-5-5-5-5----|---7-7-7-7-7-7--------|
Eb|----------------------|----------------------|


CHORUS


OUTRO

BOTH GUITARS
Eb|------------------|------------------|
Bb|------------------|------------------|
Gb|------------------|---2-2-2-2-2------|
Db|---4-4-4-4-4------|---2-2-2-2-2------|
Ab|---4-4-4-4-4------|---0-0-0-0-0------|
Eb|---2-2-2-2-2------|------------------|

Eb|------------------|------------------|
Bb|------------------|------------------|
Gb|------------------|---4-4-4-4-4------|
Db|---2-2-2-2-2------|---4-4-4-4-4------|
Ab|---2-2-2-2-2------|---2-2-2-2-2------|
Eb|---0-0-0-0-0------|------------------|

Eb|------------------|------------------|
Bb|------------------|------------------|
Gb|------------------|---2-2-2-2-2------|
Db|---4-4-4-4-4------|---2-2-2-2-2------|
Ab|---4-4-4-4-4------|---0-0-0-0-0------|
Eb|---2-2-2-2-2------|------------------|

Eb|------------------|------------------|
Bb|------------------|------------------|
Gb|------------------|---4-4-4-4-4------|
Db|---2-2-2-2-2------|---4-4-4-4-4------|
Ab|---2-2-2-2-2------|---2-2-2-2-2------|
Eb|---0-0-0-0-0------|------------------|

Eb|------------------|
Bb|------------------|
Gb|------------------|
Db|---4-4-4-4-4------|
Ab|---4-4-4-4-4------|
Eb|---2-2-2-2-2------|





That's pretty much it.



If you liked it, I would really appreciate if you could rate or comment my tab.
So far, I've almost reached 10,000 views!
This is apparently my most viewed tab yet!
Thank you so much!


/==================================================\
| If you want more of my tabs, search these songs: |
|==================================================|
|Life of a Salesman ~ Yellowcard                   |
|                                                  |
|The Only Exception ~ Paramore                     |
|                                                  |
|When I'm Gone      ~ Simple Plan                  |
|                                                  |
|Magic              ~ Pilot                        |
|                                                  |
|Take Me Away       ~ Plain White Ts               |
|                                                  |
|No Love            ~ Simple Plan                  |
|                                                  |
|One Day            ~ Simple Plan                  |
|                                                  |
|Save You           ~ Simple Plan                  |
|                                                  |
|Only One           ~ Yellowcard                   |
|                                                  |
|Keeper             ~ Yellowcard                   |
\==================================================/

OK, enjoy.
comments
We did not receive enough feedback on this tab! Please rate:
print report bad tab
1 2 3 4 5
I want to post or [tab]
guest
You may want to rate the tab now too:
select rating
Please do not post tabs as comments. Select "correction" instead!