Oops, an error
Loading. Please wait.

Your Love Is A Lie Tab

version 7
version 7
2,664 views 1 this week
no commentswrite comment
1 2 3 4 5
please rate
add to favorites
launch autoscroll
font size
0
reset
how to read this tab
guitar tuner
Tab Pro tools
  • play this tab
  • loop segment
  • change instrument
  • show fretboard
  • metronome
×
Best way to learn
"Your Love Is A Lie"
Autoscroll
slow
fast
+/-
esc
set tempo
stop
Contributor
Difficulty
novice
Alright this song is your love is a lie by simple plan. i probably could have add 
the drums and bass for this song but i didnt want to take forever.
so anyway the first guitar in this song must have a CAPO on or TUNED UP
Guitar 1: CAPO OR TUNED UP also use's distortion pedal
Guitar 2: Is just tabbed in standard: Distorted throughout song

Intro & Verse:
Guitar 1: fret 1 is just the capo PLZ REMEMBER Begins clean
)--------1---------------------------(
)---------1-1-----4-------4--------3-(
)------3---1-----1-------3-3-3----3--( Repeat as many times need
)-----3---------1-------1---1----3---(
)----------------------1--------1----(
)---1----------4---------------------(

Pre Chorus:
Guitar 1:hit distortion pedal
)1111-1111-1111--1--1--1--1--1111-1111-1111-1111--1111-1111-1111--1--1--1--1--1111-1111-1111-1111(
)6666-8888-9999-11-11-11-11--6666-8888-9999-8888--6666-8888-9999-11-11-11-11--6666-8888-9999-8888(
)------------------------------------------------------------------------------------------------(
)------------------------------------------------------------------------------------------------(
)------------------------------------------------------------------------------------------------(
)------------------------------------------------------------------------------------------------(
GUITAR 2
)----------------------------------------------------------------------------------------(
)----------------------------------------------------------------------------------------(
)--6~~~~~~~~~~~~~~~~~~~~~~~~~~~----------------------6~~~~~~~~~~~~~~~~~~~~~~~~~~8~~~~~~~~(
)--6~~~~~~~~~~~~~~~~~~~~~~~~~~~6~~~~~~~~~~~~~~~~~~~~~6~~~~~~~~~~~~~~~~~~~~~~~~~~8~~~~~~~~(
)--4~~~~~~~~~~~~~~~~~~~~~~~~~~~6~~~~~~~~~~~~~~~~~~~~~4~~~~~~~~~~~~~~~~~~~~~~~~~~6~~~~~~~~(
)------------------------------4~~~~~~~~~~~~~~~~~~~~~------------------------------------(

Chorus:
Both guitars do same in this chorus
)--------------------------------------(
)--------------------------------------(
)--------------------8-8-8-8-----------( Repeat once again
)--3-3-3-3--6-6-6-6--8-8-8-8--8-8-8-8--(
)--3-3-3-3--6-6-6-6--6-6-6-6--8-8-8-8--(
)--1-1-1-1--4-4-4-4-----------6-6-6-6--(
THEN
)------------------------------------------------------------------------(
)------------------------------------------------------------------------(
)--6-6-6-6-----------8-8-8-8-----------6-6-6-6-6-6-6-6--8-8-8-8-8-8-8-8--(
)--6-6-6-6--6-6-6-6--8-8-8-8--8-8-8-8--6-6-6-6-6-6-6-6--8-8-8-8-8-8-8-8--(
)--4-4-4-4--6-6-6-6--6-6-6-6--8-8-8-8--4-4-4-4-4-4-4-4--6-6-6-6-6-6-6-6--(
)-----------4-4-4-4-----------6-6-6-6------------------------------------(

Repeat verse Again then
Pre Chorus: Slightly different on last note because you only hit it once
So repeat that all the same execpt for the last lot of notes you hit,
instead hit last note once if you get what i mean if not listen to the song
on the second pre chorus

Chorus 2: 
Guitar one do the same last time
Guitar 2:
)--13--------11-------11--------10-----(
)----13--------11-------11--------11---(
)------13--------12-------12--------10-( Repeat x2
)--------------------------------------( not sure on picking after that though
)--------------------------------------(
)--------------------------------------(

Bridge 1:
Both Guitars
)----------------------------------(
)----------------------------------(
)------------------8888-8----------( Repeat x2
)--3333-3--6666-6--8888-8--8888-8--( .= Palm Mute
)--3333-3--6666-6--6666-6--8888-8--(
)--1111-1--4444-4----------6666-6--(
   ....    ....    ....    ....

Solo:
I will probably tab the solo later for whoever wants it
as i am not sure on it yet but i have tabbed the chords behind it

)----------------------------------------(
)----------------------------------------(
)---6-6-6-6-----------8-8-8-8------------( Repeat x2
)---6-6-6-6--6-6-6-6--8-8-8-8--8-8-8-8---(
)---4-4-4-4--6-6-6-6--6-6-6-6--8-8-8-8---(
)------------4-4-4-4-----------6-6-6-6---(
THEN
)--------------------------------------(
)--------------------------------------(
)---6-6-6-6-6-6-6-6--8-8-8-8-8-8-8-8---(
)---6-6-6-6-6-6-6-6--8-8-8-8-8-8-8-8---(
)---4-4-4-4-4-4-4-4--6-6-6-6-6-6-6-6---(
)--------------------------------------(

Quiet/loud Chorus: Clean
Guitar 2 does the picking like the 2 chorus
Guitar 1:work the stumming out by your selfs
)--1-----4---------------------------(
)--1-----4---------------------------(
)--1-----1--Then Distortion----------( When the distortion comes in
)--3-----1----Comes in (Foot pedal)--( Start chorus from the 3rd chord
)--3-----3---------------------------(
)--1-----4---------------------------(
   EM    G

with the chords in the chorus that you normally do 8 times you must repeat them
Bridge 2:
Same thing except on the very last chord you palm mute don't hit the last one 
without the palm mute
comments
We did not receive enough feedback on this tab! Please rate:
print report bad tab
1 2 3 4 5
I want to post or [tab]
guest
You may want to rate the tab now too:
select rating
Please do not post tabs as comments. Select "correction" instead!