Oops, an error
Loading. Please wait.

Wake N Bake Tab

31 views 9 this week
no commentswrite comment
1 2 3 4 5
3 more votes to show rating
add to favorites
launch autoscroll
font size
0
reset
how to read this tab
guitar tuner
Autoscroll
slow
fast
+/-
esc
set tempo
stop
Help us to improve Ultimate-Guitar.com Take our survey!
×
Author
Difficulty
intermediate
About this tab version
Includes tabbed intro instead of just chords. Was this info helpful? Yes No
-----------------------------------------------------------------------------
                            Wake N Bake by Simplified
-----------------------------------------------------------------------------
Tabbed by: J-Swan 
Email:jsvens805@gmail.com

Tuning: standard EADGBe


[Intro]

e|----------------------------------|
B|----------------------------------|
G|-----------9-9--9-9--11-11--11-11-|
D|-7-7--7-7--9-9--9-9--11-11--11-11-|
A|-7-7--7-7--7-7--7-7--9--9---9--9--|
E|-5-5--5-5-------------------------|

e|-----------|
B|-----------|
G|-----9--11-|
D|-11--------|
A|-----------|
E|-----------|

e|-------------------------------------------------------------|
B|-----------10--------------10-9------------------------------| x2
G|-11-9-11-9----11-9----9-11------11-9------------9b11--11--11-|
D|--------------------9----------------------9h11--------------|
A|--------------------------------------9h12-------------------|
E|-------------------------------------------------------------|

--
[Verse/Chorus]

-   -   -   -
x   x   x   x
x   x   x   x 
x   9   11  7
7   9   11  7
7   7   9   5
5   x   x   x
-   -   -   -

(Same four chords throughout)

 

************************************

| b  Bend
| h  Hammer-on

************************************
Suggest correction
Give kudos to tab author, rate the tab!
1 2 3 4 5
comments
print report bad tab
guest
You may want to rate the tab now too:
select rating
Wanna post a correction for this tab? Suggest correction