Oops, an error
Loading. Please wait.

For Your Babies tab

version 1
version 1

Whole song

Interactive

9,001 views 1 this week
1 commentread comment
1 2 3 4 5
3 more votes to show rating
add to favorites
×
Save as Personal and add changes to this tab that will be seen only by you. Learn more ›
×
You can save this tab as Personal to edit and correct it or add notes. All changes will be seen only by you. Learn more »
launch autoscroll
font size
0
reset
how to read this tab
guitar tuner
backing track
0:00
0:00
edit
Autoscroll
slow
fast
+/-
esc
set tempo
stop
Simply red        for your babies



intro

|-------------------------------------------5------------------------|
|-----3/5--5-----3/5--5------3--2---3---------3/5---3---2------------|
|-----------------------------------------------------------------2--|
|--------------------------------------------------------------------|
|--------------------------------------------------------------------|
|--------------------------------------------------------------------|


solo
|------------------------9---7----------7----9?9/7--7-------------------------------------------------|
|-----3/5--5------5---------------5----------------------5------3/5--3--2----------------5------------|
|-------------------------------------------------------------------------------2------2---------4/6--|
|-----------------------------------------------------------------------------------------------------|
|-----------------------------------------------------------------------------------------------------|
|-----------------------------------------------------------------------------------------------------|

|----7/9--7---5---7----9/12---12-------------12----12-----------------------------------------------------|
|----------------------------------------10------------------10/12-----10---------------------------------|
|---------------------------------------------------------------------------------------------------------|
|---------------------------------------------------------------------------------------------------------|
|---------------------------------------------------------------------------------------------------------|
|---------------------------------------------------------------------------------------------------------|

there u go, that?s the solo and the intro

there are some small fills, but they are easy to figure out. Its almost the same as the intro, but not 
its just an order change in the notes.

Any changes that need 2 be made, e-mail me at nickey_sixx@hotmail.com

            
            
Suggest correction
Creating personal tab
Creating personal tab
You can edit any tab online and save it as your Personal.

You can edit, replace or remove any tab part or add personal notes – all changes will be seen only by you.

Personal tabs can be accessed anytime from any device, even offline.
Learn more »
Give kudos to tab author, rate the tab!
1 2 3 4 5
comments
print report bad tab
1 comment total.
0 reply
Nytstalk 21 Sep 20, 2010 10:34 PM

Almost right, i would go with:

intro

|----------------------------5--------------------------|
|-----3/5--5-----3/5--5------3--2---3---------4/6---5---3---0|
|---------------------------------------------------------2--|
|------------------------------------------------------------|
|------------------------------------------------------------|
|------------------------------------------------------------|

guest
Wanna post a correction for this tab? Suggest correction