Oops, an error
Loading. Please wait.

More bass

94 views 1 this week
no commentswrite comment
1 2 3 4 5
3 more votes to show rating
add to favorites
×
Save as Personal and add changes to this tab that will be seen only by you. Learn more ›
×
You can save this tab as Personal to edit and correct it or add notes. All changes will be seen only by you. Learn more »
launch autoscroll
font size
0
reset
guitar tuner
edit
Autoscroll
slow
fast
+/-
esc
set tempo
stop
[Intro]

  Em7                          Gmaj7       Am7                              A#m7
G|-------------------|-------------------|------------------|-------------------|
D|-----2-------------|-2----2------------|------------------|-------------------|
A|---2---2--------2--|---------------2---|-----------3------|-----3-2-----------|
E|-0-------0----3----|----------3--------|-5-5--5-----------|-5-5------5--------|

  Bm7                              Bm7/F#  Am7
G|-------------------|-------------------|------------------|-------------------|
D|-------------------|-------------------|------------------|-2-2--2------------|
A|-2-2--2------------|-2----2------------|----------3---3---|-----------3----3--|
E|-----------2-------|-----------2-------|-5-5-5-5----------|-------------------|


[Verse]

  Em7                           Gmaj7      Am7                              A#m7
G|-------------------|-------------------|------------------|-------------------|
D|-----2-------------|-2----2------------|------------------|-------------------|
A|---2---2--------2--|----------------2--|-----------3------|-----3-2-----------|
E|-0-------0----3----|-----------3-------|-5-5--5-----------|-5-5------5--------|

  Bm7                            Bm7/F#    Am7
G|-------------------|-------------------|------------------|-------------------|
D|-------------------|-------------------|------------------|-2----2------------|
A|-2-2--2------------|-2----2------------|----------3---3---|-----------3----3--|
E|-----------2-------|-----------2-------|-5-5-5-5----------|-------------------|

  Em7                              Gmaj7  Am7                              A#m7
G|-------------------|-------------------|------------------|-------------------|
D|-----2-------------|-2----2------------|------------------|-------------------|
A|---2---2--------2--|----------------2--|-----------3------|-----3-2-----------|
E|-0-------0----3----|-----------3-------|-5-5--5-----------|-5-5------5--------|

  Bm7                             Bm7/F#   Am7
G|-------------------|-------------------|------------------|-----------4----2--|
D|-------------------|-------------------|------------------|-2-2--2------------|
A|-2-2--2------------|-2----2------------|----------3----3--|-------------------|
E|-----------2-------|-----------2-------|-5-5-5-5----------|-------------------|

G|-------------------|
D|-------------------|
A|-------------------|
E|-0-----------------|


[Chorus 1]

  Am7        Dm7       Em7
G|-------------------|-------------------|------------------|-------------------|
D|-------------------|-------------------|------------------|-------------------|
A|-3-2--0----5----5--|-------------2-----|-3-2--0----5----5-|-------------2-----|
E|-------------------|-0-0--0--------3-0-|------------------|-0-0--0--------3-0-|

  Am7        Dm7       Em7        Am7      Dm7               A
G|-------------------|-------------------|------------------|-------------------|
D|-------------------|-------------------|----------7-7-7-7-|-------------------|
A|-3-3--0----5----5--|------------3-2--0-|-5----------------|-0---0-3-2--0------|
E|-------------------|-0-0--0------------|------------------|-------------------|

G|-------------------|
D|-------------------|
A|---0----0----------|
E|------------3---2--|


[Instrumental]

  Em7                          Gmaj7       Am7                              A#m7
G|-------------------|-------------------|------------------|-------------------|
D|-----2-------------|-2----2------------|------------------|-------------------|
A|---2---2--------2--|---------------2---|-----------3------|-----3-2-----------|
E|-0-------0----3----|----------3--------|-5-5--5-----------|-5-5------5--------|
  Bm7                              Bm7/F#  Am7
G|-------------------|-------------------|------------------|-------------------|
D|-------------------|-------------------|------------------|-2-2--2------------|
A|-2-2--2------------|-2----2------------|----------3---3---|-----------3----3--|
E|-----------2-------|-----------2-------|-5-5-5-5----------|-------------------|


[Verse 2]

  Em7                           Gmaj7      Am7                              A#m7
G|-------------------|-------------------|------------------|-------------------|
D|-----2-------------|-2----2------------|------------------|-------------------|
A|---2---2--------2--|----------------2--|-----------3------|-----3-2-----------|
E|-0-------0----3----|-----------3-------|-5-5--5-----------|-5-5------5--------|

  Bm7                            Bm7/F#    Am7
G|-------------------|-------------------|------------------|-------------------|
D|-------------------|-------------------|------------------|-2----2------------|
A|-2-2--2------------|-2----2------------|----------3---3---|-----------3----3--|
E|-----------2-------|-----------2-------|-5-5-5-5----------|-------------------|

  Em7                              Gmaj7  Am7                              A#m7
G|-------------------|-------------------|------------------|-------------------|
D|-----2-------------|-2----2------------|------------------|-------------------|
A|---2---2--------2--|----------------2--|-----------3------|-----3-2-----------|
E|-0-------0----3----|-----------3-------|-5-5--5-----------|-5-5------5--------|

  Bm7                             Bm7/F#   Am7
G|-------------------|-------------------|------------------|-----------4----2--|
D|-------------------|-------------------|------------------|-2-2--2------------|
A|-2-2--2------------|-2----2------------|----------3----3--|-------------------|
E|-----------2-------|-----------2-------|-5-5-5-5----------|-------------------|

G|-------------------|
D|-------------------|
A|-------------------|
E|-0-----------------|


[Chorus 2]

  Am        Dm7        Em7                 Am       Dm7
G|-------------------|-------------------|------------------|
D|-------------------|-------------------|------------------|
A|-3-2--0-----5----5-|-------------2-----|-3-2--0-----5---5-|
E|-------------------|-0-0--0--------3-0-|------------------|

  Em7                  Am       Dm7        Em7               Am        Dm7     $
G|-------------------|-------------------|------------------|-------------------|
D|-------------------|-------------------|------------------|-------------------|
A|-------------2-----|-3-2--0----5----5--|-------------2----|-3-2--0----5----5--|
E|-0-0--0--------3-0-|-------------------|-0-0--0--------3-0|-------------------|

  Em7                  Am        Dm7       Em7        Am7     Dm7
G|-------------------|-------------------|------------------|-------------------|
D|-------------------|-------------------|------------------|---------7-7-7-7---|
A|-------------2-----|-3-2--0----5----5--|-----------3-2--0-|-5-----------------|
E|-0-0--0--------3-0-|-------------------|-0-0--0-----------|-------------------|

G|-------------------|-------------------|
D|-------------------|-------------------|Go back ; play through
A|-0---0-3-2--0------|---0----0----------|the verse, then take
E|-------------------|------------3---2--|2nd chorus till $


[Verse 3]

  Em7                           Gmaj7      Am7                              A#m7
G|-------------------|-------------------|------------------|-------------------|
D|-----2-------------|-2----2------------|------------------|-------------------|
A|---2---2--------2--|----------------2--|-----------3------|-----3-2-----------|
E|-0-------0----3----|-----------3-------|-5-5--5-----------|-5-5------5--------|

  Bm7                            Bm7/F#    Am7
G|-------------------|-------------------|------------------|-------------------|
D|-------------------|-------------------|------------------|-2----2------------|
A|-2-2--2------------|-2----2------------|----------3---3---|-----------3----3--|
E|-----------2-------|-----------2-------|-5-5-5-5----------|-------------------|

  Em7                              Gmaj7  Am7                              A#m7
G|-------------------|-------------------|------------------|-------------------|
D|-----2-------------|-2----2------------|------------------|-------------------|
A|---2---2--------2--|----------------2--|-----------3------|-----3-2-----------|
E|-0-------0----3----|-----------3-------|-5-5--5-----------|-5-5------5--------|

  Bm7                             Bm7/F#   Am7
G|-------------------|-------------------|------------------|-----------4----2--|
D|-------------------|-------------------|------------------|-2-2--2------------|
A|-2-2--2------------|-2----2------------|----------3----3--|-------------------|
E|-----------2-------|-----------2-------|-5-5-5-5----------|-------------------|

G|-------------------|
D|-------------------|
A|-------------------|
E|-0-----------------|


[Chorus 3]

  Am        Dm7        Em7                 Am       Dm7
G|-------------------|-------------------|------------------|
D|-------------------|-------------------|------------------|
A|-3-2--0-----5----5-|-------------2-----|-3-2--0-----5---5-|
E|-------------------|-0-0--0--------3-0-|------------------|

  Em7                  Am       Dm7        Em7               Am        Dm7     
G|-------------------|-------------------|------------------|-------------------|
D|-------------------|-------------------|------------------|-------------------|
A|-------------2-----|-3-2--0----5----5--|-------------2----|-3-2--0----5----5--|
E|-0-0--0--------3-0-|-------------------|-0-0--0--------3-0|-------------------|


[Outro]

         Em7           Am        Dm7       Em7                Am        Dm7
G|-------------------|-------------------|------------------|-------------------|
D|-------------------|-------------------|------------------|-------------------|
A|-----------2-------|-3-2--0-----5----5-|-------------2----|-3-2--0-----5----5-|
E|-0-0--0------3-0---|-------------------|-0-0--0--------3-0|-------------------|

  Em7                  Am       Dm7       Em7        Am7      Dm7
G|-------------------|-------------------|------------------|-------------------|
D|-------------------|-------------------|------------------|---------7-7-7-7---|
A|-------------2-----|-3-2--0----5----5--|-----------3-2--0-|-5-----------------|
E|-0-0--0--------3-0-|-------------------|-0-0--0-----------|-------------------|

   A
G|-------------------|
D|-------------------|
A|-0----0-3-2--0-----|
E|-------------------|

    Am        Dm7      Em7                  Am        Dm7      Em7
G||-------------------|-------------------|------------------|-------------------|
D||-------------------|-------------------|------------------|-------------------|*
A||-3-2--0-----5----5-|-------------2-----|-3-2--0-----5----5|-------------2-----|*
E||-------------------|-0-0--0--------3-0-|------------------|-0-0--0--------3-0-|

   Am        Dm7       Em7        Am7       Dm7                A
G|--------------------|-------------------|------------------|-------------------||
D|--------------------|-------------------|---------7-7-7-7--|-------------------||
A|-3-2--0-----5----5--|-----------3-2--0--|-5----------------|-------------------||
E|--------------------|-0-0--0------------|------------------|-5-----------------||

            
            
Suggest correction
Creating personal tab
Creating personal tab
You can edit any tab online and save it as your Personal.

You can edit, replace or remove any tab part or add personal notes – all changes will be seen only by you.

Personal tabs can be accessed anytime from any device, even offline.
Learn more »
Give kudos to tab author, rate the tab!
1 2 3 4 5
comments
print report bad tab
guest
Wanna post a correction for this tab? Suggest correction