Oops, an error
Loading. Please wait.

Sunrise Bass

version 1
version 1

Whole song

  • Full song, existing bass tabs were incomplete.

Interactive

8,657 views 18 this week
2 commentsread comments
1 2 3 4 5
x 5
add to favorites
launch autoscroll
font size
0
reset
guitar tuner
×
Best way to learn
"Sunrise"
Autoscroll
slow
fast
+/-
esc
set tempo
stop
   Artist:Simply Red
   Song:Sunrise
   Tabbed by:Svilen Kostadinov
   
   Standard tunnig
   Intro/Verse:
   G-------------------------------------------
   D-----3-3----1---1-2---3-3--1--2-3/5--------
   A----------3---3-----------3----------------
   E-------------------------------------------
   Chorus:
   G-------------------------------------------
   D---------------------------3/7--------------
   A-----3-3----1------------5------------------
   E----------3---3-1-3--3-3--------------------

   G--------------------------------------------
   D--------------------------------------------
   A-----3-3----1---1-----------1-1-------------
   E----------3---3---3--11---1-----------------
  
   G--------------------------------------------
   D---------------------------3/7--------------
   A-----3-3----1------------5------------------
   E----------3---3-1-3--3-3--------------------

   G---------------------------------------------
   D---------------------------------------------
   A-----3-3----1---1----------------------------
   E----------3---3---3--11----1--3-3------------
   
   After second chorus:
   G-----------------------------------------------
   D-----------------------------------------------
   A----3-3----1---1-2-3-3-2-----------------------
   E---------3---3-----------1-1-------------------

   G------------------------------------------------
   D------------------------------------------------
   A----3-3----1---1-2-3-3---1-2--------------------
   E---------3---3---------3------------------------
   
   G-------------------------------------------------
   D-------------------------------------------------
   A----3-3----1---1-2-3-3---------------------------
   E---------3---3---------3-1-1---------------------

   G--------------------------------------------------
   D--------------------------------------------------
   A----3-3---1---1-2---------------------------------
   E--------3---3-------------------------------------
   End wiht Chorus

   That`s what I thing.It`possible to have some wrong notes.
   For any comments:emko_kpoc@hotmail.com
Suggest correction
comments
print report bad tab
2 comments total.
0 reply
DamnFineBass 10 Jun 19, 2007 11:53 PM

Great tab but if you listen closely he doesn't always play the slide at the end of the verse. There doesn't seem to be any system in whe he does however, so great job.

0 reply
keneticshark24 135 Aug 12, 2007 07:41 AM

Perfect, thank you. Please, tab more Simply Red bass. :P

Great work, keep going.

guest
You may want to rate the tab now too:
select rating
Wanna post a correction for this tab? Suggest correction