Oops, an error
Loading. Please wait.

V-Hire Chords

2,145 views 15 this week
no commentswrite comment
1 2 3 4 5
3 more votes to show rating
add to favorites
launch autoscroll
font size
0
reset
transpose
0
reset
display chords
guitar tuner
Autoscroll
slow
fast
+/-
esc
set tempo
stop
Help us to improve Ultimate-Guitar.com Take our survey!
×
Author
Band/Artist:Simsalah
Song:V-hire


Intro:C-Am-F-G-

Verse:
C-Am-F-G-
Alas singko sa hapon 
C-Am-F-G 
kami nanga-on
C-Am-F-G-
Padulong sa terminal,
C-Am-F-G-
sakay sa sakyanan
C-Am-F-G-
Lingkod sa lingkuranan
C-Am-F-G- 
tapad babayng adunahan 
C-Am-F-G-
among gi-istoryahan 
C-Am-F-G-
iyang husband nga buotan

Chorus:
C-Am-F-G-
Nagsakay kami sa v-hire, 
C-Am-F-G-
kami nag-istoryahay, 
C-Am-F-G-
diha sulod sa v-hire
C-Am-F-G-
Ako naglaway

verse:
C-Am-F-G-
Pila ka minuto
C-Am-F-G- 
ako wala mahimutang
C-Am-F-G-
Nipara sa driver,
C-Am-F-G- 
i need to release the water 
C-Am-F-G-
from my pussy [2x]

[Repeat chorus]

verse:
C-Am-F-G-
Nalipay na ang tanan 
C-Am-F-G-
kay padayon nami ug dagan,
C-Am-F-G- 
ngit-ngit na ang dalan 
  C         Am         F     G
walay suga sulod sa sakyanan

Bridge:
C          Am   F            G
Ang akong kamot nikalit ra ug lihok 
C       Am          F      G
wa ko kabantay kay ako nakatolog 
C          Am   F       G
ug nahikap ko bolabolang dako..

[Repeat chorus]




im not sure of this tabs,heheh.. 
pero suwayi lang para nako nindot man pud paminawon.

For lead gtr.
e|-8---------8---------11-----------------------------------|
B|---9-11-9-----9-11-9----9-11-9--14-13-11-13-11------------|
G|----------------------------------------------------------|
D|----------------------------------------------------------|
A|----------------------------------------------------------|
E|----------------------------------------------------------|

e|-8---------8---------11-----------------------------------|
B|---9-11-9-----9-11-9----9-11-9--14-13-11-13-11-9----------|
G|----------------------------------------------------------|
D|----------------------------------------------------------|
A|----------------------------------------------------------|
E|----------------------------------------------------------|

For bass gtr.
G|----------------------------------------------------------|
D|----------------------------------------------------------|
A|-0-3-3--------------0-------------------------------------|
E|------3-5-5--0-1-1----3--3--------------------------------|
Suggest correction
Give kudos to tab author, rate the tab!
1 2 3 4 5
comments
print report bad tab
guest
You may want to rate the tab now too:
select rating
Wanna post a correction for this tab? Suggest correction