Oops, an error
Loading. Please wait.

A Ti Tab

version 2
version 2

Whole song

54 views 1 this week
no commentswrite comment
1 2 3 4 5
3 more votes to show rating
add to favorites
launch autoscroll
font size
0
reset
how to read this tab
guitar tuner
×
Best way to learn
"A Ti"
Autoscroll
slow
fast
+/-
esc
set tempo
stop
Esta canción es la tercera del nuevo álbum de Sin bandera
Y esta buenísima, ahh y es la segunda canción que saco así
Bueno ahora si inclui el solo de este tema, no es muy difícil
Solo practiquen!!! Ahh lean la nota al final!!!

Intro: Bm A G Dsus2 G D Asus4 A

   Bm                           A
Durmiéndome en tus piernas respirandote
   G                    Dsus2
Sintiendo tu calor acariciandome
   G                     Dsus2                Asus4     A
Siguiendo ese camino de luz donde termino y empiezas tu
  Bm                     A
Tocandote mil veces por primera vez
  G                       Dsus2
Llenando con mi vida todo lo que ves
  G                       Dsus2                 Asus4          A
Siguiendo ese camino a mi casa que es mi casa por que estas tu
            G              D             A                   Bm
Y si me preguntan a donde voy, de donde soy, a donde quiero llegar
            G                  A
Y si me preguntan a donde me lleva amar.

 Estribillo:
    G     D      A                          Bm
  A ti, a ti, a ti ya estoy de vuelta antes de regresar
    G     D                           Asus4      A
  en ti, en ti, es donde siempre quisiera estar
    G     D      A                    Bm
  A ti, a ti, a ti mi verdadera nacionalidad
    G     D                       A
  en ti, en ti se acaba el rio comienza el mar

   Bm                        A
No siempre lo que miras es como tu crees
   G                         Dsus2
El mundo es una esfera que acaba a tus pies
   G                       Dsus2                    Asus4  A
Si parto por el norte muy pronto por el sur te sorprendere

            G              D             A                   Bm
Y si me preguntan a donde voy, de donde soy, a donde quiero llegar
            G                  A
Y si me preguntan a donde me lleva amar.

 Estribillo:
    G     D      A                          Bm
  A ti, a ti, a ti ya estoy de vuelta antes de regresar
    G     D                           Asus4      A
  en ti, en ti, es donde siempre quisiera estar
    G     D      A                    Bm
  A ti, a ti, a ti mi verdadera nacionalidad
    G     D                       A
  en ti, en ti se acaba el rio comienza el mar


Solo: Em F#m G A Bb C D
e------15----------------------------------------------------
B-17fb----17fb(19)17-15h17--15-17fb--15-14-15-14h15h14-12----
G------------------------------------------------------------
D------------------------------------------------------------
A------------------------------------------------------------
E------------------------------------------------------------

e------------------------------------------------------------
B-----------------------------11h12h14-15~15~15~-13-15-------
G--14-12-11----------11h12h14--------------------------------
D-----------11h12h14-----------------------------------------
A------------------------------------------------------------
E------------------------------------------------------------

e--------------------------------------17/19-17~-------------
B-15fb-15fb-15bf-15-17fb-17fb-17fb-15------------------------
G------------------------------------------------------------
D------------------------------------------------------------
A------------------------------------------------------------
E------------------------------------------------------------
Estribillo: (sube dos veces un medio tono)
    G#    Eb    Bb                          Cm
  A ti, a ti, a ti ya estoy de vuelta antes de regresar
    G#    Eb                       Bb
  en ti, en ti, es donde siempre quisiera estar
    A     E     B                    C#m
  A ti, a ti, a ti mi verdadera nacionalidad
     A      E                    B             A   Esus2
  en ti, en ti se acaba el rio comienza el mar

este es el arpegio final de Esus2
e----------7---------7---------------------------------------
B--------7---7-------7---------------------------------------
G------9-------9-----9---------------------------------------
D----9---------------9---------------------------------------
A--7-----------------7---------------------------------------
E------------------------------------------------------------

  Acordes:
  Asus4      Eb      Esus2     Dsus2

E   0        3         7         5
B   3        4         7         5
G   2        5         9         7
D   2        3         9         7
A   0        6         7         5
E   x        x         x         x

Bueno el ultimo Esus2 se arpegia al final,los versos
tambien van arpegiados para sonar como el CD
Y el Dsus2 es el acorde que originalmente se usa
En el tema pero si hacen el D normal del estribillo
Es casi lo mismo, vean como a ustedes les parezca
Mas sencillo, cualquier cosa escribanme migspider007@
Bye. Y dedico este tema a una personita a la que ni
Siquiera se el nombre pero me encantaria cantarsela!!
MICKY!!!
Suggest correction
Give kudos to tab author, rate the tab!
1 2 3 4 5
comments
print report bad tab
guest
You may want to rate the tab now too:
select rating
Wanna post a correction for this tab? Suggest correction