Oops, an error
Loading. Please wait.

A Ti Tab

version 4
version 4

Whole song

37 views 1 this week
no commentswrite comment
1 2 3 4 5
3 more votes to show rating
add to favorites
×
Save as Personal and add changes to this tab that will be seen only by you. Learn more ›
×
You can save this tab as Personal to edit and correct it or add notes. All changes will be seen only by you. Learn more »
save as personal
new!
launch autoscroll
font size
0
reset
how to read this tab
guitar tuner
Autoscroll
slow
fast
+/-
esc
set tempo
stop
Bueno esta cancion la puse en un tono de mujer para
las que les gusta cantar y tocar. Tambien le compuse
un requinto para la intro espero que les guste.

e-----------------------------------------------7-10-10/12-10-
B---------------------------------------7p8-----8-------------
G--9-9-11-12-------12-------9-----9---------9---7-------------
D------------12-12----12-10---9-9---12-10-----9---------------
A-------------------------------------------------------------
E-------------------------------------------------------------

Intro: Em,D,C,G,C,G,Dsus4,D

     Em                           D
Durmiéndome en tus piernas respirándote
   C                    G
Sintiendo tu calor acariciándome
   C                     G
Siguiendo ese camino de luz
                 D Dsus4    D
Donde termino y empiezas tu.


   Em                       D
Tocándote mil veces por primera vez
    C                     G
Llenando con mi vida todo lo que ves
    C                    G
Siguiendo ese camino a mi casa
                   D Dsus4    D
Que es mi casa por que estas tu.


          C
Y si me preguntan
         G             D
A donde voy, de donde soy,
              Em
A donde quiero llegar
        C
Si me preguntan
             D Dsus4  D
A donde me lleva el mar.


   C     G     D
A ti, a ti, a ti
                           Em
Ya estoy de vuelta antes de regresar
    C      G
En ti, en ti
                      D Dsus4 D
Es donde siempre quisiera estar
   C     G     D
A ti, a ti, a ti
                   Em
Mi verdadera nacionalidad
    C      G
En ti, en ti
                     D Dsus4 D
Se acaba el río, comienza el mar.

e-----------------------------------------------7-10-10/12-10-
B---------------------------------------7p8-----8-------------
G--9-9-11-12-------12-------9-----9---------9---7-------------
D------------12-12----12-10---9-9---12-10-----9---------------
A-------------------------------------------------------------
E-------------------------------------------------------------

     Em                       D
No siempre lo que miras es como tu crees
     C                        G
el mundo es una esfera que acaba a tus pies
     C
Si parto por el norte
      G                       D Dsus4 D
muy pronto por el sur te sorprenderé.


          C
Y si me preguntan
         G             D
A donde voy, de donde soy,
              Em
A donde quiero llegar
        C
Si me preguntan
             D Dsus4  D
A donde me lleva el mar.


C     G     D
A ti, a ti, a ti
                           Em
Ya estoy de vuelta antes de regresar
    C      G
En ti, en ti
                      D Dsus4 D
Es donde siempre quisiera estar
   C     G     D
A ti, a ti, a ti
                   Em
Mi verdadera nacionalidad
    C      G
En ti, en ti
                     D Dsus4 D
Se acaba el río, comienza el mar.


C     G     D
A ti, a ti, a ti
                           Em
Ya estoy de vuelta antes de regresar
    C      G
En ti, en ti
                      D Dsus4 D
Es donde siempre quisiera estar
   C     G     D
A ti, a ti, a ti
                   Em
Mi verdadera nacionalidad
    C      G
En ti, en ti
                     D Dsus4 D
Se acaba el río, comienza el mar.


e-----------------------------------------------7-10-10/12-10-8-7-5-3-
B---------------------------------------7p8-----8---------------------
G--9-9-11-12-------12-------9-----9---------9---7---------------------
D------------12-12----12-10---9-9---12-10-----9-----------------------
A---------------------------------------------------------------------
E---------------------------------------------------------------------
Suggest correction
Give kudos to tab author, rate the tab!
1 2 3 4 5
comments
print report bad tab
guest
Wanna post a correction for this tab? Suggest correction