Oops, an error
Loading. Please wait.

Si Te Vas A Ir Tab

25 views 1 this week
no commentswrite comment
1 2 3 4 5
3 more votes to show rating
add to favorites
launch autoscroll
font size
0
reset
how to read this tab
guitar tuner
×
Best way to learn
"Si Te Vas A Ir"
Autoscroll
slow
fast
+/-
esc
set tempo
stop
Bueno aquí les va mi primera transcripción ,
y no hay mejor manera q empezar con este dueto fabuloso SIN BANDERA.

ahí les va:
Después del sermón:

INTRO :

   A          C#m               D            E

e----7-7-5-5---9-7-7-5-7---------9-7-7-5-5-5---5-7-7-9-9-12-------
B--5----------------------5-5-7-----------------------------------
G-----------------------------------------------------------------
D-----------------------------------------------------------------
A-----------------------------------------------------------------
E-----------------------------------------------------------------

   A           C#m                   D             E


e--9-7-7-5-5-5---9-7-7-5-7---5-4-----9-7-7-5-5-5---5-7-7-9-9-12-----
B--------------5-----------------5---------------------------------
G------------------------------------------------------------------
D------------------------------------------------------------------
A------------------------------------------------------------------
E------------------------------------------------------------------


no se les sera muy difícil ,al contrario esta bien facil

cualquier duda o reclamo
 mandenmela a mi correo...(miguel_aries1107@
saludos a Javier bacilio y a hector chinchay
, mis patas y miembros de mi banda , ¨SB CITY¨
  y un saludo muy epecial a mi amorsito Raquel?
Suggest correction
Give kudos to tab author, rate the tab!
1 2 3 4 5
comments
print report bad tab
guest
You may want to rate the tab now too:
select rating
Wanna post a correction for this tab? Suggest correction