Oops, an error
Loading. Please wait.

En Realidad Tab

version 1
version 1

Whole song

16 views 1 this week
no commentswrite comment
1 2 3 4 5
3 more votes to show rating
add to favorites
launch autoscroll
font size
0
reset
how to read this tab
guitar tuner
×
Best way to learn
"En Realidad"
Autoscroll
slow
fast
+/-
esc
set tempo
stop
De sin censura  espero les guste parceroz
YO SOI SERGIO Y HAY LES DEJO

Intro 1 gtr

E|-----------------|-----------------|-----------------|-----------------|
B|-----------------|-----------------|-----------------|-----------------|
G|-----7--------7--|-----7--------7--|-----7--------7--|-----7--------7--|
D|---7---7----7---7|---7---7----7---7|---7---7----7---7|---7---7----7---7|
A|-5--------5------|-----------------|-----------------|-0--------0------|
E|-----------------|-5--------5------|-7--------7------|-----------------|
x2

2 gtr R5  A5  B5 G5=B5

1 gtr

E|-------------|------------|-------------|------------|---------------|
B|-------------|------------|-------------|------------|---------------|
G|-----2-2/7---|----2-2/7---|-----2-2/7---|----2-2/6---|x2----7-6-4-6--|
D|---7---------|---7--------|---7---------|--7---------|---------------|
A|-5-----------|------------|-------------|-0----------|----0----------|
E|-------------|-5----------|-7-----------|------------|---------------|

2 gtr


    R5      A5         B5       G5   B5
Imposible es q estén las cosas q me has dicho
  R5           R5         B5       G5     B5
Ya me enamore y yo no se q fue lo q paso con migo

1 gtr

E|-------------|------------|-------------|---------------|
B|-------------|------------|-------------|---------------|
G|-----2-2/7---|----2-2/7---|-----2-2/7---|------7-6-4-6--|
D|---7---------|---7--------|---7---------|---------------|
A|-5-----------|------------|-------------|----0----------|
E|-------------|-5----------|-7-----------|---------------|

2 gtr
   R5            A5
me siento mal cuando no estas
   B5     G5    B5
y pienso q yo sin tii
   R5         A5           B5     G5    B5
no se por q no has podido olvidarte de aquel


CORO
     R5      A5              B5      G5     B5
en realidad yo se muy bien q tu mirada esta en mi
     R5      A5              B5      G5      B5
en realidad yo se muy bien q te fijaste en el también


1 gtr

E|-------------|------------|-------------|---------------|
B|-------------|------------|-------------|---------------|
G|-----2-2/7---|----2-2/7---|-----2-2/7---|------7-6-4-6--|
D|---7---------|---7--------|---7---------|---------------|X2
A|-5-----------|------------|-------------|----0----------|
E|-------------|-5----------|-7-----------|---------------|
2 gtr

CORO
     R5      A5              B5      G5     B5
en realidad yo se muy bien q tu mirada esta en mi
     R5      A5              B5      G5      B5
en realidad yo se muy bien q te fijaste en el también

1 gtr

E|-------------|------------|-------------|---------------|
B|-------------|------------|-------------|---------------|
G|-----2-2/7---|----2-2/7---|-----2-2/7---|------7-6-4-6--|
D|---7---------|---7--------|---7---------|---------------|
A|-5-----------|------------|-------------|----0----------|
E|-------------|-5----------|-7-----------|---------------|

E|-----------|---------|----------|---------------|
B|-----------|---10----|----------|---------------|
G|----11-----|---------|----9-7---|---11-9-11-7---|
D|-------0---|------0--|----------|---------------|
A|-----------|-0-------|-9--------|-0-------------|
E|-10--------|---------|----------|---------------|
2gtr
     R5      A5              B5      G5     B5
En realidad yo se muy bien q tu mirada esta en mi
     R5      A5              B5      G5      B5
En realidad yo se muy bien q te fijaste en el también

1 y 2 gtr
  R5                       A5                    B5
El no te ama en realidad solo te quiere engañar estaré
                G5            B5
Esperando acá q tú te decidas por mi (bis)


BUENO PARCEROS OJALA LES SIRVA
SERGIO ANDRES MUÑOZ ORTIZ
Sercho1994@
Suggest correction
Give kudos to tab author, rate the tab!
1 2 3 4 5
comments
print report bad tab
guest
You may want to rate the tab now too:
select rating
Wanna post a correction for this tab? Suggest correction