Oops, an error
Loading. Please wait.

En Realidad Tab

version 2
version 2

Whole song

17 views 1 this week
no commentswrite comment
1 2 3 4 5
3 more votes to show rating
add to favorites
launch autoscroll
font size
0
reset
how to read this tab
guitar tuner
×
Best way to learn
"En Realidad"
Autoscroll
slow
fast
+/-
esc
set tempo
stop
Hola esta es la verdadera version
 con la verdadera letra espero que les sirva
y nada agreguenme rvb3n-neo23@

el unico acorde extraño es este D/C# es un D con el bajo en el C#
E|-----|
B|-----|
G|--7--|
D|--7--|
A|--4--|
E|-----|


Intro 1 gtr

E|-----------------|-----------------|-----------------|-----------------|
B|-----------------|-----------------|-----------------|-----------------|
G|-----7--------7--|-----7--------7--|-----7--------7--|-----7--------7--|
D|---7---7----7---7|---7---7----7---7|---7---7----7---7|---7---7----7---7|
A|-5--------5------|-4--------4------|-----------------|-----------------|
E|-----------------|-----------------|-7--------7------|-5--------5------|
x2

2 gtr D5 D/C#5 B5 A5
1 gtr

E|-------------|------------|-------------|------------|
B|-------------|------------|-------------|------------|
G|-----6-6/7---|---6-6/7----|-----6-6/7---|----6-7-----|
D|---7-------7-|-7--------7-|---7-------7-|--7---------|
A|-------------|------------|-------------|------------|
E|-------------|------------|-------------|------------|

E|-------------|------------|-------------|------------------|
B|-------------|------------|-------------|------------------|
G|-----6-6/7---|---6-6/7----|-----6-6/7---|----6-7-7/9-7-6-7-|
D|---7-------7-|-7--------7-|---7-------7-|--7---------------|
A|-------------|------------|-------------|------------------|
E|-------------|------------|-------------|------------------|


D5       D/C#5     B5         A5
Imposible es creerte las cosas q me has dicho
D5          D/C#5     B5           A5
Ya me enamore y yo no se q fue lo q paso conmigo

1 gtr

E|-------------|------------|-------------|------------------|
B|-------------|------------|-------------|------------------|
G|-----6-6/7---|---6-6/7----|-----6-6/7---|----6-7-7/9-7-6-7-|
D|---7-------7-|-7--------7-|---7-------7-|--7---------------|
A|-------------|------------|-------------|------------------|
E|-------------|------------|-------------|------------------|
2 gtr
D5         D/C#5           B5
me siento mal cuando no estas
           A5
y pierdo tiempo in tii
D5          D/C#5     B5          A5
no se por q no has podido olvidarte de aquel


CORO
  D5      A5              B5      G5     B5
en realidad yo se muy bien q tu mirada esta en mi
  R5      A5              B5      G5      B5
en realidad yo se muy bien q te fijaste en el también


1 gtr
E|-------------|------------|-------------|------------|
B|-------------|------------|-------------|------------|
G|-----6-6/7---|---6-6/7----|-----6-6/7---|----6-7-----|
D|---7-------7-|-7--------7-|---7-------7-|--7---------|
A|-------------|------------|-------------|------------|
E|-------------|------------|-------------|------------|

E|-------------|------------|-------------|------------------|
B|-------------|------------|-------------|------------------|
G|-----6-6/7---|---6-6/7----|-----6-6/7---|----6-7-7/9-7-6-7-|
D|---7-------7-|-7--------7-|---7-------7-|--7---------------|
A|-------------|------------|-------------|------------------|
E|-------------|------------|-------------|------------------|


2 gtr

CORO
  D5      A5              B5      G5     B5
en realidad yo se muy bien q tu mirada esta en mi
  D5      A5              B5      G5      B5
en realidad yo se muy bien q te fijaste en el también

1 gtr

E|-------------|------------|-------------|---------------|
B|-------------|------------|-------------|---------------|
G|------7------|------7-----|------7------|------7--------|
D|--------7----|--------7---|--------7----|--------7------|
A|-------------|------------|-------------|---------------|
E|-------------|------------|-------------|---------------|

E|-----------|---------|----------|---------------|
B|----7------|---10----|----------|---7---7-------|
G|------7----|------7--|----9-7---|-----7---7-7-7-|
D|-----------|---------|----------|---------------|
A|-----------|---------|----------|---------------|
E|-----------|---------|----------|---------------|
2gtr
  D5      A5              B5      G5     B5
En realidad yo se muy bien q tu mirada esta en mi
  D5      A5              B5      G5      B5
En realidad yo se muy bien q te fijaste en el también

1 y 2 gtr
 D5                   A5                    B5
El no te ama en realidad solo te quiere engañar estaré
           G5            B5
Esperando acá q tú te decidas por mi (bis)
Suggest correction
Give kudos to tab author, rate the tab!
1 2 3 4 5
comments
print report bad tab
guest
You may want to rate the tab now too:
select rating
Wanna post a correction for this tab? Suggest correction