Oops, an error
Loading. Please wait.

Ya No Es Lo Mismo Tab

34 views 1 this week
no commentswrite comment
1 2 3 4 5
3 more votes to show rating
add to favorites
launch autoscroll
font size
0
reset
how to read this tab
guitar tuner
×
Best way to learn
"Ya No Es Lo Mismo"
Autoscroll
slow
fast
+/-
esc
set tempo
stop
INTRO

e|-------------------|-------------------
B|-----4-------4/5---|-----4-------4/5---
G|---4---4---4-----4-|---4---4---4-----4-
D|-------------------|-------------------
A|-2-------2---------|-4-----------------
E|-------------------|-------------------

e|-------------------|-------------------
B|-----4-------4/5---|-----4-------4/5---
G|---4---4---4-----4-|---4---4---4-----4-
D|-2-----------------|-4-----------------
A|-------------------|-------------------
E|-------------------|-------------------

B5     C#5
Déjame que te escriba
E5             F#5
Esta canción es para vos
B5           C#5
Tus palabras, tus miradas
E5           C#5
Siempre quedaran en mí

(Sigue el mismo circulo de acordes)

Puente sobre los acordes

e|---------------------------------------------------
B|---2---5-5-4---2---5-5-4---2---5-5-4---2---5-5-4---
G|-4---4-------4---4-------4---4-------4---4---------
D|---------------------------------------------------
A|---------------------------------------------------
E|---------------------------------------------------

Todo comenzó un día normal hacia sol
Yo te miraba en la ventana
Ensayaba con mi banda de punk-rock
Y te miraba, te soñaba, en mis brazos
Te besaba y es el  día que esperaba
Y ese día me llego

Ya no es lo mismo yo te ame pero es distinto
Eso que sentía por vos ya no esta en mi corazón (bis)

Los días pasaron
Fabulosos a tu lado
Comían muchos helados
Nuestro amor era algo raro
Y me besaba, se besaban
Todo el día te pensaba
Esos días terminaron
Pero ahora  ni quiero ser tu amigo

Ya no es lo mismo yo te ame pero es distinto
Eso que sentía por vos ya no esta en mi corazón (bis x 5)
Waaaaaaaaaaaaaaaaaaaaaaaaaaaaaaaa!!!

Acordes:
   B5   C#5   E5   F#5
e|----|-----|----|--------------------
B|-4--|-6---|-9--|-11-----------------
G|-4--|-6---|-9--|-11-----------------
D|-2--|-4---|-7--|-9------------------
A|----|-----|----|--------------------
E|----|-----|----|--------------------
Suggest correction
Give kudos to tab author, rate the tab!
1 2 3 4 5
comments
print report bad tab
guest
You may want to rate the tab now too:
select rating
Wanna post a correction for this tab? Suggest correction