Oops, an error
Loading. Please wait.

1936, Un Pueblo En Armas Bass Tab

79 views 3 this week
no commentswrite comment
1 2 3 4 5
3 more votes to show rating
add to favorites
launch autoscroll
font size
0
reset
guitar tuner
×
Best way to learn
"1936, Un Pueblo En Armas"
Autoscroll
slow
fast
+/-
esc
set tempo
stop
weno aqui una wena zong d Zin Dioz" ezpero q lez guztez puez...
zaludoz para loz antifaziztaz del perú a1q yo no zoy pero
m agradan algunaz cancionez y tienen razón en muxaz...!!!
zolamnete den el ritmo adecuado y ez 1 poco rapido...

INTRO:"1:16"...
G------------------------------------------/
D-2-2222-2222-222-2-2----------------------/ -->
A---------------------3-3333-3333-333-3-3--/
E------------------------------------------/

    G------------------------------------------/
--> D-5-5555-5555-555-5-5-0-0000-0000-000-0-0--/
    A------------------------------------------/
    E------------------------------------------/

VERZO:"el sol de julio calienta más fuerte..."
G----------------------------------------------------------/
D-22-22-22-2222---------------55-55-55-5555-00-00-00-0000--/
A---------------33-33-33-3333------------------------------/  X2
E----------------------------------------------------------/

VERZO:"ya no hay patronez..."
G---------------------------------------------------------/
D-55-55-55-5555-------------------------------------------/
A---------------66-66-66-6666-77-77-77-7777-55-55-55-6-7--/  X2
E---------------------------------------------------------/

Zolo:
G------------------------------------------/
D-2-2222-2222-222-2-2----------------------/ -->
A---------------------3-3333-3333-333-3-3--/
E------------------------------------------/

    G------------------------------------------/
--> D-5-5555-5555-555-5-5-0-0000-0000-000-0-0--/
    A------------------------------------------/  TODO X2
    E------------------------------------------/


CORO:"1936, el pueblo..."
G----------------------------------------------------------/
D-22-22-22-2222---------------55-55-55-5555-00-00-00-0000--/
A---------------33-33-33-3333------------------------------/
E----------------------------------------------------------/

G----------------------------------------------------------/
D-222-2--222-2----------------55-55-55-5555-00-00-00-0000--/
A---------------33-33-33-3333------------------------------/
E----------------------------------------------------------/

VERZO:"mientras el pueblo en el frente..."
G----------------------------------------------------------/
D-22-22-22-2222---------------55-55-55-5555-00-00-00-0000--/
A---------------33-33-33-3333------------------------------/  X2
E----------------------------------------------------------/

CORO:
G----------------------------------------------------------/
D-22-22-22-2222---------------55-55-55-5555-00-00-00-0000--/
A---------------33-33-33-3333------------------------------/
E----------------------------------------------------------/

G----------------------------------------------------------/
D-222-2--222-2----------------55-55-55-5555-00-00-00-0000--/
A---------------33-33-33-3333------------------------------/
E----------------------------------------------------------/

PARTE FINAL:
G------------------------------------------/
D-2-2222-2222-222-2-2----------------------/ -->
A---------------------3-3333-3333-333-3-3--/
E------------------------------------------/

    G------------------------------------------/
--> D-5-5555-5555-555-5-5-0-0000-0000-000-0-0--/
    A------------------------------------------/
    E------------------------------------------/

ezo ez toda la zongz px y zt fazil pero tengan en cuenta
alguno momentoz en loz cualez le dan palmute al najo y zuena
mejor y cuando dejan zonra tmb puez...
weno cualquier duda o comentario mi mzn ez ajpe_24@hot...
Suggest correction
Give kudos to tab author, rate the tab!
1 2 3 4 5
comments
print report bad tab
guest
You may want to rate the tab now too:
select rating
Wanna post a correction for this tab? Suggest correction