Oops, an error
Loading. Please wait.

1936, Un Pueblo En Armas Tab

124 views 1 this week
no commentswrite comment
1 2 3 4 5
2 more votes to show rating
add to favorites
×
Save as Personal and add changes to this tab that will be seen only by you. Learn more ›
×
You can save this tab as Personal to edit and correct it or add notes. All changes will be seen only by you. Learn more »
save as personal
new!
launch autoscroll
font size
0
reset
how to read this tab
guitar tuner
Autoscroll
slow
fast
+/-
esc
set tempo
stop
intro:
LAm - DO - SOL - REm

Despues va este punteo:
------------------------------------------------------ 
------------------------------------------------------
-5------------------------------5-7/8-7--5-7-8-7------
----------------------------5-7-----------------------
----3-5/7--5-3--3pm-5---5-7---------------------------
------------------------------------------------------

-----------12-10-8-10-8-10-8----------12-10-8---------
-----8-10--------------------10-8/10------------------
-5-7--------------------------------------------------
------------------------------------------------------
------------------------------------------------------
------------------------------------------------------

MI-8-10-12-10-12-13-12-13-15-13-12-13-12-10-8-10------

COMUNISMO LIBERTARIO!

El rekintillo

* = se repite
----------------------------------------------------------5-
----------------------------------------------------3-4-5-5-
-5*-4-5*-4-5*-4-5-7-5-4------------------------3-4-5--------
------------------------7-5---------------3-4-5-------------
----------------------------5-7------3-4-5------------------
--------------------------------3-4-5-----------------------

MI-8*---10*---8*---10*---12*---15-14-12-14-15-14-12-14-15-14-12-14
SI-8*---10*---8*---10*---12*--------------------------------------

MI-15-14-12-14----------------------------------------------
SI-------------15-14-12-------------------------------------
SOL---------------------14-12-------------------------------
RE----------------------------15-14-12----------------------

LAm
El sol de julio calienta mas fuerte
 DO
rostros rojinegros desprecian la muerte
 SOL
deciden vencer con fuego i metralla
 REm
barriendo al fascismo de calles i plazas

 Am
No son soldados ni son mercenarios
 DO
son hombres, mujeres son libertari@s
 SOL
no luchan por el orden republicano
 REm
su corazon late revolucionario

 SOL
Ya no hay patrones
 RE#
ni explotadores
 FA
la vida organizan
 RE            RE# FA
los trabajadores

 SOL
Colectivizan ciudades
 RE#
liberan los campos
 FA
crean milicias
 RE            RE# FA
en los sindicatos

Aki se repite el segundo rekintillo nomas ke termina diferente 
i aun no e sakado esa parte

 LAm
Mil novecientos treinta y seis
 DO
el pueblo se alsa como un vendaval
 SOL
camina sin miedo contra el capital
 REm
impone con fuerza el soñado ideal

 LAm  
mil novecientos treinta y seis
 DO
el pueblo se alsa como un vendaval
 SOL
camina sin miedo contra el capital
 REm
comunismo libertario, revolucion social

 LAm
Mientras el pueblo en el frente
 DO
se bate como un leon
 SOL
en la retaguardia los cobardes
 REm
preparan la traicion

 LAm
Burocratas y estalinistas
 DO
caminan ya de la mano
 SOL
fotjando las cadenas
 REm
que uniran a sus herman@s

 LAm
Mil novecientos treinta y seis
 DO
el pueblo se alsa como un vendaval
 SOL
camina sin miedo contra el capital
 REm
impone con fuerza el soñado ideal

 LAm  
mil novecientos treinta y seis
 DO
el pueblo se alsa como un vendaval
 SOL
camina sin miedo contra el capital
 REm
comunismo libertario, revolucion social

sigue kon los akordes: Lam, Do, Sol, Rem


eskucha la rola para ke la sakes mejor!
Suggest correction
Give kudos to tab author, rate the tab!
1 2 3 4 5
comments
print report bad tab
guest
Wanna post a correction for this tab? Suggest correction